  0
SECTION
  2
HEADER
  9
$ACADVER
  1
AC1012
  9
$DWGCODEPAGE
  3
ansi_1252
  9
$INSBASE
 10
0.0
 20
0.0
 30
0.0
  9
$EXTMIN
 10
0.0
 20
0.0
 30
0.0
  9
$EXTMAX
 10
431.8
 20
279.4
 30
0.0
  9
$LIMMIN
 10
0.0
 20
0.0
  9
$LIMMAX
 10
0.0
 20
0.0
  9
$ORTHOMODE
 70
         0
  9
$REGENMODE
 70
         1
  9
$FILLMODE
 70
         1
  9
$QTEXTMODE
 70
         0
  9
$MIRRTEXT
 70
         1
  9
$DRAGMODE
 70
         2
  9
$LTSCALE
 40
1.0
  9
$OSMODE
 70
         0
  9
$ATTMODE
 70
         1
  9
$TEXTSIZE
 40
3.5
  9
$TRACEWID
 40
0.05
  9
$TEXTSTYLE
  7
STANDARD
  9
$CLAYER
  8
0
  9
$CELTYPE
  6
CONTINUOUS
  9
$CECOLOR
 62
       256
  9
$CELTSCALE
 40
1.0
  9
$DELOBJ
 70
         1
  9
$DISPSILH
 70
         0
  9
$DIMSCALE
 40
1.0
  9
$DIMASZ
 40
0.0
  9
$DIMEXO
 40
0.0
  9
$DIMDLI
 40
0.38
  9
$DIMRND
 40
0.0
  9
$DIMDLE
 40
0.0
  9
$DIMEXE
 40
0.18
  9
$DIMTP
 40
0.0
  9
$DIMTM
 40
0.0
  9
$DIMTXT
 40
3.5
  9
$DIMCEN
 40
0.09
  9
$DIMTSZ
 40
0.0
  9
$DIMTOL
 70
         0
  9
$DIMLIM
 70
         0
  9
$DIMTIH
 70
         1
  9
$DIMTOH
 70
         1
  9
$DIMSE1
 70
         0
  9
$DIMSE2
 70
         0
  9
$DIMTAD
 70
         0
  9
$DIMZIN
 70
         0
  9
$DIMBLK
  1

  9
$DIMASO
 70
         1
  9
$DIMSHO
 70
         1
  9
$DIMPOST
  1

  9
$DIMAPOST
  1

  9
$DIMALT
 70
         0
  9
$DIMALTD
 70
         2
  9
$DIMALTF
 40
0.0394
  9
$DIMLFAC
 40
2.0
  9
$DIMTOFL
 70
         0
  9
$DIMTVP
 40
0.0
  9
$DIMTIX
 70
         0
  9
$DIMSOXD
 70
         0
  9
$DIMSAH
 70
         0
  9
$DIMBLK1
  1

  9
$DIMBLK2
  1

  9
$DIMSTYLE
  2
STANDARD
  9
$DIMCLRD
 70
         0
  9
$DIMCLRE
 70
         0
  9
$DIMCLRT
 70
         0
  9
$DIMTFAC
 40
1.0
  9
$DIMGAP
 40
0.0
  9
$DIMJUST
 70
         0
  9
$DIMSD1
 70
         0
  9
$DIMSD2
 70
         0
  9
$DIMTOLJ
 70
         1
  9
$DIMTZIN
 70
         0
  9
$DIMALTZ
 70
         0
  9
$DIMALTTZ
 70
         0
  9
$DIMFIT
 70
         3
  9
$DIMUPT
 70
         0
  9
$DIMUNIT
 70
         2
  9
$DIMDEC
 70
         4
  9
$DIMTDEC
 70
         4
  9
$DIMALTU
 70
         2
  9
$DIMALTTD
 70
         2
  9
$DIMTXSTY
  7
STANDARD
  9
$DIMAUNIT
 70
         0
  9
$LUNITS
 70
         2
  9
$LUPREC
 70
         2
  9
$SKETCHINC
 40
0.1
  9
$FILLETRAD
 40
0.0
  9
$AUNITS
 70
         0
  9
$AUPREC
 70
         2
  9
$MENU
  1
acad
  9
$ELEVATION
 40
0.0
  9
$PELEVATION
 40
0.0
  9
$THICKNESS
 40
0.0
  9
$LIMCHECK
 70
         0
  9
$BLIPMODE
 70
         1
  9
$CHAMFERA
 40
0.0
  9
$CHAMFERB
 40
0.0
  9
$CHAMFERC
 40
0.0
  9
$CHAMFERD
 40
0.0
  9
$SKPOLY
 70
         0
  9
$TDCREATE
 40
0.000000000
  9
$TDUPDATE
 40
0.000000000
  9
$TDINDWG
 40
0.0000000000
  9
$TDUSRTIMER
 40
0.0000000000
  9
$USRTIMER
 70
         1
  9
$ANGBASE
 50
0.0
  9
$ANGDIR
 70
         0
  9
$PDMODE
 70
         0
  9
$PDSIZE
 40
-1.0
  9
$PLINEWID
 40
0.0
  9
$COORDS
 70
         0
  9
$SPLFRAME
 70
         0
  9
$SPLINETYPE
 70
         6
  9
$SPLINESEGS
 70
         8
  9
$ATTDIA
 70
         0
  9
$ATTREQ
 70
         1
  9
$HANDLING
 70
         1
  9
$HANDSEED
  5
54C
  9
$SURFTAB1
 70
         6
  9
$SURFTAB2
 70
         6
  9
$SURFTYPE
 70
         6
  9
$SURFU
 70
         6
  9
$SURFV
 70
         6
  9
$UCSNAME
  2

  9
$UCSORG
 10
0.0
 20
0.0
 30
0.0
  9
$UCSXDIR
 10
1.0
 20
0.0
 30
0.0
  9
$UCSYDIR
 10
0.0
 20
1.0
 30
0.0
  9
$PUCSNAME
  2

  9
$PUCSORG
 10
0.0
 20
0.0
 30
0.0
  9
$PUCSXDIR
 10
1.0
 20
0.0
 30
0.0
  9
$PUCSYDIR
 10
0.0
 20
1.0
 30
0.0
  9
$USERI1
 70
         0
  9
$USERI2
 70
         0
  9
$USERI3
 70
         0
  9
$USERI4
 70
         0
  9
$USERI5
 70
         0
  9
$USERR1
 40
0.0
  9
$USERR2
 40
0.0
  9
$USERR3
 40
0.0
  9
$USERR4
 40
0.0
  9
$USERR5
 40
0.0
  9
$WORLDVIEW
 70
         1
  9
$SHADEDGE
 70
         3
  9
$SHADEDIF
 70
        70
  9
$TILEMODE
 70
         1
  9
$MAXACTVP
 70
        16
  9
$PINSBASE
 10
0.0
 20
0.0
 30
0.0
  9
$PLIMCHECK
 70
         0
  9
$PEXTMIN
 10
1.0000000000E+20
 20
1.0000000000E+20
 30
1.0000000000E+20
  9
$PEXTMAX
 10
-1.0000000000E+20
 20
-1.0000000000E+20
 30
-1.0000000000E+20
  9
$PLIMMIN
 10
0.0
 20
0.0
  9
$PLIMMAX
 10
12.0
 20
9.0
  9
$UNITMODE
 70
         0
  9
$VISRETAIN
 70
         0
  9
$PLINEGEN
 70
         1
  9
$PSLTSCALE
 70
         1
  9
$TREEDEPTH
 70
      3020
  9
$PICKSTYLE
 70
         1
  9
$CMLSTYLE
  2
STANDARD
  9
$CMLJUST
 70
         0
  9
$CMLSCALE
 40
1.0
  9
$SAVEIMAGES
 70
         0
  0
ENDSEC
  0
SECTION
  2
CLASSES
  0
CLASS
  1
LWPOLYLINE
  2
AcDbPolyline
  3
"AutoCAD"
 90
    32768
280
         0
281
         1
  0
CLASS
  1
IMAGE
  2
AcDbRasterImage
  3
ISM
 90
    32895
280
         0
281
         1
  0
CLASS
  1
OLE2FRAME
  2
AcDbOle2Frame
  3
""
 90
    32768
280
         0
281
         1
  0
CLASS
  1
HATCH
  2
AcDbHatch
  3
"ACAD_SEDONA"
 90
    32768
280
         0
281
         1
  0
CLASS
  1
DICTIONARYVAR
  2
AcDbDictionaryVar
  3
"AutoCAD"
 90
    32768
280
         0
281
         0
  0
CLASS
  1
RASTERVARIABLES
  2
AcDbRasterVariables
  3
ISM
 90
    32768
280
         0
281
         0
  0
CLASS
  1
IMAGEDEF
  2
AcDbRasterImageDef
  3
ISM
 90
    32768
280
         0
281
         0
  0
CLASS
  1
IMAGEDEF_REACTOR
  2
AcDbRasterImageDefReactor
  3
ISM
 90
    32769
280
         0
281
         0
  0
CLASS
  1
IDBUFFER
  2
AcDbIdBuffer
  3
"Acad"
 90
    32768
280
         0
281
         0
  0
CLASS
  1
SPATIAL_FILTER
  2
AcDbSpatialFilter
  3
"Acad"
 90
    32768
280
         0
281
         0
  0
CLASS
  1
XRECORD
  2
AcDbXrecord
  3
"<Built In>"
 90
    32768
280
         0
281
         0
  0
CLASS
  1
SORTENTSTABLE
  2
AcDbSortentsTable
  3
"AutoCAD"
 90
    32768
280
         0
281
         0
  0
CLASS
  1
LAYER_INDEX
  2
AcDbLayerIndex
  3
"Acad"
 90
    32768
280
         0
281
         0
  0
CLASS
  1
SPATIAL_INDEX
  2
AcDbSpatialIndex
  3
"Acad"
 90
    32768
280
         0
281
         0
  0
CLASS
  1
OBJECT_PTR
  2
CAseDLPNTableRecord
  3
"ASE-LPNTableRecord"
 90
    32769
280
         0
281
         0
  0
CLASS
  1
LAYOUT
  2
AcDbLayout
  3
"AutoCAD 2000"
 90
    32768
280
         0
281
         0
  0
CLASS
  1
PLOTSETTINGS
  2
AcDbPlotSettings
  3
"AutoCAD 2000"
 90
    32768
280
         0
281
         0
  0
CLASS
  1
ACDBDICTIONARYWDFLT
  2
AcDbDictionaryWithDefault
  3
"AutoCAD 2000"
 90
    32768
280
         0
281
         0
  0
CLASS
  1
ACDBPLACEHOLDER
  2
AcDbPlaceHolder
  3
"AutoCAD 2000"
 90
    32768
280
         0
281
         0
  0
CLASS
  1
VBA_PROJECT
  2
AcDbVbaProject
  3
"acadvba"
 90
    32768
280
         0
281
         0
  0
CLASS
  1
WIPEOUT
  2
AcDbWipeout
  3
WipeOut|AutoCAD Express Tool|expresstools@autodesk.com
 90
    32895
280
         0
281
         1
  0
CLASS
  1
WIPEOUTVARIABLES
  2
AcDbWipeoutVariables
  3
WipeOut|AutoCAD Express Tool|expresstools@autodesk.com
 90
    32768
280
         0
281
         0
  0
CLASS
  1
RTEXT
  2
RText
  3
RText|AutoCAD Express Tool|expresstools@autodesk.com
 90
    32768
280
         0
281
         1
  0
CLASS
  1
ARCALIGNEDTEXT
  2
AcDbArcAlignedText
  3
ATEXT|AutoCAD Express Tool|expresstools@autodesk.com
 90
    32768
280
         0
281
         1
  0
ENDSEC
  0
SECTION
  2
TABLES
  0
TABLE
  2
VPORT
  5
7
100
AcDbSymbolTable
 70
         1
  0
VPORT
  5
15
100
AcDbSymbolTableRecord
100
AcDbViewportTableRecord
  2
*ACTIVE
 70
         0
 10
0.0
 20
0.0
 11
1.0
 21
1.0
 12
215.9
 22
139.7
 13
0.0
 23
0.0
 14
1.0
 24
1.0
 15
0.0
 25
0.0
 16
0.0
 26
0.0
 36
1.0
 17
0.0
 27
0.0
 37
0.0
 40
279.4
 41
0.6470588235
 42
50.0
 43
0.0
 44
0.0
 50
0.0
 51
0.0
 71
         0
 72
      2000
 73
         1
 74
         1
 75
         0
 76
         0
 77
         0
 78
         0
  0
ENDTAB
  0
TABLE
  2
LTYPE
  5
4
100
AcDbSymbolTable
 70
         8
  0
LTYPE
  5
11
100
AcDbSymbolTableRecord
100
AcDbLinetypeTableRecord
  2
BYBLOCK
 70
        64
  3

 72
        65
 73
         0
 40
0.0
  0
LTYPE
  5
12
100
AcDbSymbolTableRecord
100
AcDbLinetypeTableRecord
  2
BYLAYER
 70
        64
  3

 72
        65
 73
         0
 40
0.0
  0
LTYPE
  5
13
100
AcDbSymbolTableRecord
100
AcDbLinetypeTableRecord
  2
CONTINUOUS
 70
        64
  3
Solid line
 72
        65
 73
         0
 40
0.0
  0
LTYPE
  5
1D
100
AcDbSymbolTableRecord
100
AcDbLinetypeTableRecord
  2
HIDDEN
 70
        64
  3
Hidden __ __ __ __ __ __ __ __ __ __ __ __ __ __
 72
        65
 73
         2
 40
1.905
 49
1.27
 74
         0
 49
-0.635
 74
         0
  0
LTYPE
  5
1E
100
AcDbSymbolTableRecord
100
AcDbLinetypeTableRecord
  2
PHANTOM
 70
        64
  3
Phantom ______  __  __  ______  __  __  ______
 72
        65
 73
         6
 40
12.7
 49
6.35
 74
         0
 49
-1.27
 74
         0
 49
1.27
 74
         0
 49
-1.27
 74
         0
 49
1.27
 74
         0
 49
-1.27
 74
         0
  0
LTYPE
  5
1F
100
AcDbSymbolTableRecord
100
AcDbLinetypeTableRecord
  2
CENTER
 70
        64
  3
Center ____ _ ____ _ ____ _ ____ _ ____ _ ____
 72
        65
 73
         4
 40
10.16
 49
6.35
 74
         0
 49
-1.27
 74
         0
 49
1.27
 74
         0
 49
-1.27
 74
         0
  0
LTYPE
  5
20
100
AcDbSymbolTableRecord
100
AcDbLinetypeTableRecord
  2
CENTERX2
 70
        64
  3
Center (2x) ________  __  ________  __  _____
 72
        65
 73
         4
 40
20.32
 49
12.7
 74
         0
 49
-2.54
 74
         0
 49
2.54
 74
         0
 49
-2.54
 74
         0
  0
LTYPE
  5
21
100
AcDbSymbolTableRecord
100
AcDbLinetypeTableRecord
  2
DOT2
 70
        64
  3
Dot (.5x) ........................................
 72
        65
 73
         2
 40
0.635
 49
0.0
 74
         0
 49
-0.635
 74
         0
  0
ENDTAB
  0
TABLE
  2
LAYER
  5
2
100
AcDbSymbolTable
 70
         2
  0
LAYER
  5
14
100
AcDbSymbolTableRecord
100
AcDbLayerTableRecord
  2
0
 70
         0
 62
         7
  6
CONTINUOUS
  0
LAYER
  5
23
100
AcDbSymbolTableRecord
100
AcDbLayerTableRecord
  2
DEFPOINTS
 70
         0
 62
         7
  6
CONTINUOUS
  0
ENDTAB
  0
TABLE
  2
STYLE
  5
3
100
AcDbSymbolTable
 70
         1
  0
STYLE
  5
17
100
AcDbSymbolTableRecord
100
AcDbTextStyleTableRecord
  2
STANDARD
 70
         0
 40
0.0
 41
1.0
 50
0.0
 71
         0
 42
0.0
  3
txt
  4

  0
ENDTAB
  0
TABLE
  2
VIEW
  5
5
100
AcDbSymbolTable
 70
         0
  0
ENDTAB
  0
TABLE
  2
UCS
  5
6
100
AcDbSymbolTable
 70
         0
  0
ENDTAB
  0
TABLE
  2
APPID
  5
8
100
AcDbSymbolTable
 70
         1
  0
APPID
  5
16
100
AcDbSymbolTableRecord
100
AcDbRegAppTableRecord
  2
ACAD
 70
         0
  0
ENDTAB
  0
TABLE
  2
DIMSTYLE
  5
9
100
AcDbSymbolTable
 70
         1
  0
DIMSTYLE
105
18
100
AcDbSymbolTableRecord
100
AcDbDimStyleTableRecord
  2
STANDARD
 70
         0
  3

  4

  5

  6

  7

 40
1.0
 41
0.18
 42
0.0625
 43
0.38
 44
0.18
 45
0.0
 46
0.0
 47
0.0
 48
0.0
 71
         0
 72
         0
 73
         1
 74
         1
 75
         0
 76
         0
 77
         0
 78
         0
140
0.18
141
0.09
142
0.0
143
25.4
144
1.0
145
0.0
146
1.0
147
0.09
170
         0
171
         2
172
         0
173
         0
174
         0
175
         0
176
         0
177
         0
178
         0
270
         2
271
         4
272
         4
273
         2
274
         2
275
         0
280
         0
281
         0
282
         0
283
         1
284
         0
285
         0
286
         0
287
         3
288
         0
340
17
  0
ENDTAB
  0
TABLE
  2
BLOCK_RECORD
  5
1
100
AcDbSymbolTable
 70
         0
  0
BLOCK_RECORD
  5
A
100
AcDbSymbolTableRecord
100
AcDbBlockTableRecord
  2
*MODEL_SPACE
  0
BLOCK_RECORD
  5
B
100
AcDbSymbolTableRecord
100
AcDbBlockTableRecord
  2
*PAPER_SPACE
  0
ENDTAB
  0
ENDSEC
  0
SECTION
  2
BLOCKS
  0
BLOCK
  5
D
100
AcDbEntity
  8
0
100
AcDbBlockBegin
  2
*MODEL_SPACE
 70
         0
 10
0.0
 20
0.0
 30
0.0
  3
*MODEL_SPACE
  1

  0
ENDBLK
  5
E
100
AcDbEntity
  8
0
100
AcDbBlockEnd
  0
BLOCK
  5
F
100
AcDbEntity
 67
         1
  8
0
100
AcDbBlockBegin
  2
*PAPER_SPACE
 70
         0
 10
0.0
 20
0.0
 30
0.0
  3
*PAPER_SPACE
  1

  0
ENDBLK
  5
10
100
AcDbEntity
 67
         1
  8
0
100
AcDbBlockEnd
  0
ENDSEC
  0
SECTION
  2
ENTITIES
  0
LINE
  5
24
100
AcDbEntity
  8
0
  6
CONTINUOUS
 62
         7
100
AcDbLine
 10
142.2422260098
 20
204.2202913488
 30
0.0
 11
142.2422260098
 21
110.6895477401
 31
0.0
  0
LINE
  5
25
100
AcDbEntity
  8
0
  6
CONTINUOUS
 62
         7
100
AcDbLine
 10
300.7422260098
 20
103.1895477401
 30
0.0
 11
134.7422260098
 21
103.1895477401
 31
0.0
  0
LINE
  5
26
100
AcDbEntity
  8
0
  6
CONTINUOUS
 62
         7
100
AcDbLine
 10
263.7422260098
 20
110.6895477401
 30
0.0
 11
263.7422260098
 21
204.2202913488
 31
0.0
  0
LINE
  5
27
100
AcDbEntity
  8
0
  6
CONTINUOUS
 62
         7
100
AcDbLine
 10
134.7422260098
 20
103.1895477401
 30
0.0
 11
134.7422260098
 21
211.7202913488
 31
0.0
  0
LINE
  5
28
100
AcDbEntity
  8
0
  6
CONTINUOUS
 62
         7
100
AcDbLine
 10
134.7422260098
 20
211.7202913488
 30
0.0
 11
300.7422260098
 21
211.7202913488
 31
0.0
  0
LINE
  5
29
100
AcDbEntity
  8
0
  6
CONTINUOUS
 62
         7
100
AcDbLine
 10
263.7422260098
 20
204.2202913488
 30
0.0
 11
142.2422260098
 21
204.2202913488
 31
0.0
  0
LINE
  5
2A
100
AcDbEntity
  8
0
  6
CONTINUOUS
 62
         7
100
AcDbLine
 10
142.2422260098
 20
110.6895477401
 30
0.0
 11
263.7422260098
 21
110.6895477401
 31
0.0
  0
LINE
  5
2B
100
AcDbEntity
  8
0
  6
CONTINUOUS
 62
         7
100
AcDbLine
 10
300.7422260098
 20
211.7202913488
 30
0.0
 11
300.7422260098
 21
103.1895477401
 31
0.0
  0
LINE
  5
2C
100
AcDbEntity
  8
0
  6
CONTINUOUS
 62
         7
100
AcDbLine
 10
142.2422260098
 20
204.2202913488
 30
0.0
 11
142.2422260098
 21
180.8376054466
 31
0.0
  0
LINE
  5
2D
100
AcDbEntity
  8
0
  6
CONTINUOUS
 62
         7
100
AcDbLine
 10
162.4922260098
 20
192.5289483977
 30
0.0
 11
148.9922260098
 21
192.5289483977
 31
0.0
  0
LINE
  5
2E
100
AcDbEntity
  8
0
  6
CONTINUOUS
 62
         7
100
AcDbLine
 10
148.9922260098
 20
192.5289483977
 30
0.0
 11
142.2422260098
 21
180.8376054466
 31
0.0
  0
LINE
  5
2F
100
AcDbEntity
  8
0
  6
CONTINUOUS
 62
         7
100
AcDbLine
 10
162.4922260098
 20
192.5289483977
 30
0.0
 11
142.2422260098
 21
204.2202913488
 31
0.0
  0
LINE
  5
30
100
AcDbEntity
  8
0
  6
CONTINUOUS
 62
         7
100
AcDbLine
 10
162.4922260098
 20
192.5289483977
 30
0.0
 11
169.2422260098
 21
180.8376054466
 31
0.0
  0
LINE
  5
31
100
AcDbEntity
  8
0
  6
CONTINUOUS
 62
         7
100
AcDbLine
 10
142.2422260098
 20
204.2202913488
 30
0.0
 11
162.4922260098
 21
192.5289483977
 31
0.0
  0
LINE
  5
32
100
AcDbEntity
  8
0
  6
CONTINUOUS
 62
         7
100
AcDbLine
 10
169.2422260098
 20
204.2202913488
 30
0.0
 11
142.2422260098
 21
204.2202913488
 31
0.0
  0
LINE
  5
33
100
AcDbEntity
  8
0
  6
CONTINUOUS
 62
         7
100
AcDbLine
 10
169.2422260098
 20
180.8376054466
 30
0.0
 11
169.2422260098
 21
204.2202913488
 31
0.0
  0
LINE
  5
34
100
AcDbEntity
  8
0
  6
CONTINUOUS
 62
         7
100
AcDbLine
 10
148.9922260098
 20
192.5289483977
 30
0.0
 11
162.4922260098
 21
192.5289483977
 31
0.0
  0
LINE
  5
35
100
AcDbEntity
  8
0
  6
CONTINUOUS
 62
         7
100
AcDbLine
 10
162.4922260098
 20
192.5289483977
 30
0.0
 11
169.2422260098
 21
180.8376054466
 31
0.0
  0
LINE
  5
36
100
AcDbEntity
  8
0
  6
CONTINUOUS
 62
         7
100
AcDbLine
 10
169.2422260098
 20
180.8376054466
 30
0.0
 11
142.2422260098
 21
180.8376054466
 31
0.0
  0
LINE
  5
37
100
AcDbEntity
  8
0
  6
CONTINUOUS
 62
         7
100
AcDbLine
 10
142.2422260098
 20
180.8376054466
 30
0.0
 11
148.9922260098
 21
192.5289483977
 31
0.0
  0
LINE
  5
38
100
AcDbEntity
  8
0
  6
CONTINUOUS
 62
         7
100
AcDbLine
 10
182.7422260098
 20
204.2202913488
 30
0.0
 11
175.9922260098
 21
192.5289483977
 31
0.0
  0
LINE
  5
39
100
AcDbEntity
  8
0
  6
CONTINUOUS
 62
         7
100
AcDbLine
 10
175.9922260098
 20
192.5289483977
 30
0.0
 11
182.7422260098
 21
188.6318340807
 31
0.0
  0
LINE
  5
3A
100
AcDbEntity
  8
0
  6
CONTINUOUS
 62
         7
100
AcDbLine
 10
182.7422260098
 20
188.6318340807
 30
0.0
 11
184.9922260098
 21
184.7347197637
 31
0.0
  0
LINE
  5
3B
100
AcDbEntity
  8
0
  6
CONTINUOUS
 62
         7
100
AcDbLine
 10
184.9922260098
 20
184.7347197637
 30
0.0
 11
184.9922260098
 21
182.1366435523
 31
0.0
  0
LINE
  5
3C
100
AcDbEntity
  8
0
  6
CONTINUOUS
 62
         7
100
AcDbLine
 10
184.9922260098
 20
182.1366435523
 30
0.0
 11
184.2422260098
 21
180.8376054466
 31
0.0
  0
LINE
  5
3D
100
AcDbEntity
  8
0
  6
CONTINUOUS
 62
         7
100
AcDbLine
 10
184.2422260098
 20
180.8376054466
 30
0.0
 11
183.4922260098
 21
180.4045927447
 31
0.0
  0
LINE
  5
3E
100
AcDbEntity
  8
0
  6
CONTINUOUS
 62
         7
100
AcDbLine
 10
183.4922260098
 20
180.4045927447
 30
0.0
 11
182.9922260098
 21
180.4045927447
 31
0.0
  0
LINE
  5
3F
100
AcDbEntity
  8
0
  6
CONTINUOUS
 62
         7
100
AcDbLine
 10
182.9922260098
 20
180.4045927447
 30
0.0
 11
182.7422260098
 21
180.8376054466
 31
0.0
  0
LINE
  5
40
100
AcDbEntity
  8
0
  6
CONTINUOUS
 62
         7
100
AcDbLine
 10
182.7422260098
 20
180.8376054466
 30
0.0
 11
183.2422260098
 21
180.8376054466
 31
0.0
  0
LINE
  5
41
100
AcDbEntity
  8
0
  6
CONTINUOUS
 62
         7
100
AcDbLine
 10
183.2422260098
 20
180.8376054466
 30
0.0
 11
183.4922260098
 21
181.2706181485
 31
0.0
  0
LINE
  5
42
100
AcDbEntity
  8
0
  6
CONTINUOUS
 62
         7
100
AcDbLine
 10
183.4922260098
 20
181.2706181485
 30
0.0
 11
183.4922260098
 21
182.1366435523
 31
0.0
  0
LINE
  5
43
100
AcDbEntity
  8
0
  6
CONTINUOUS
 62
         7
100
AcDbLine
 10
183.4922260098
 20
182.1366435523
 30
0.0
 11
182.7422260098
 21
183.435681658
 31
0.0
  0
LINE
  5
44
100
AcDbEntity
  8
0
  6
CONTINUOUS
 62
         7
100
AcDbLine
 10
182.7422260098
 20
183.435681658
 30
0.0
 11
180.4922260098
 21
184.7347197637
 31
0.0
  0
LINE
  5
45
100
AcDbEntity
  8
0
  6
CONTINUOUS
 62
         7
100
AcDbLine
 10
180.4922260098
 20
184.7347197637
 30
0.0
 11
175.9922260098
 21
184.7347197637
 31
0.0
  0
LINE
  5
46
100
AcDbEntity
  8
0
  6
CONTINUOUS
 62
         7
100
AcDbLine
 10
175.9922260098
 20
184.7347197637
 30
0.0
 11
169.2422260098
 21
180.8376054466
 31
0.0
  0
LINE
  5
47
100
AcDbEntity
  8
0
  6
CONTINUOUS
 62
         7
100
AcDbLine
 10
169.2422260098
 20
204.2202913488
 30
0.0
 11
169.2422260098
 21
180.8376054466
 31
0.0
  0
LINE
  5
48
100
AcDbEntity
  8
0
  6
CONTINUOUS
 62
         7
100
AcDbLine
 10
182.7422260098
 20
204.2202913488
 30
0.0
 11
169.2422260098
 21
204.2202913488
 31
0.0
  0
LINE
  5
49
100
AcDbEntity
  8
0
  6
CONTINUOUS
 62
         7
100
AcDbLine
 10
189.4922260098
 20
192.5289483977
 30
0.0
 11
189.4922260098
 21
184.7347197637
 31
0.0
  0
LINE
  5
4A
100
AcDbEntity
  8
0
  6
CONTINUOUS
 62
         7
100
AcDbLine
 10
189.4922260098
 20
184.7347197637
 30
0.0
 11
187.2422260098
 21
180.8376054466
 31
0.0
  0
LINE
  5
4B
100
AcDbEntity
  8
0
  6
CONTINUOUS
 62
         7
100
AcDbLine
 10
187.2422260098
 20
180.8376054466
 30
0.0
 11
184.9922260098
 21
179.5385673409
 31
0.0
  0
LINE
  5
4C
100
AcDbEntity
  8
0
  6
CONTINUOUS
 62
         7
100
AcDbLine
 10
184.9922260098
 20
179.5385673409
 30
0.0
 11
183.4922260098
 21
179.5385673409
 31
0.0
  0
LINE
  5
4D
100
AcDbEntity
  8
0
  6
CONTINUOUS
 62
         7
100
AcDbLine
 10
183.4922260098
 20
179.5385673409
 30
0.0
 11
182.7422260098
 21
179.9715800428
 31
0.0
  0
LINE
  5
4E
100
AcDbEntity
  8
0
  6
CONTINUOUS
 62
         7
100
AcDbLine
 10
182.7422260098
 20
179.9715800428
 30
0.0
 11
182.4922260098
 21
180.4045927447
 31
0.0
  0
LINE
  5
4F
100
AcDbEntity
  8
0
  6
CONTINUOUS
 62
         7
100
AcDbLine
 10
182.4922260098
 20
180.4045927447
 30
0.0
 11
182.7422260098
 21
180.8376054466
 31
0.0
  0
LINE
  5
50
100
AcDbEntity
  8
0
  6
CONTINUOUS
 62
         7
100
AcDbLine
 10
182.7422260098
 20
180.8376054466
 30
0.0
 11
182.9922260098
 21
180.4045927447
 31
0.0
  0
LINE
  5
51
100
AcDbEntity
  8
0
  6
CONTINUOUS
 62
         7
100
AcDbLine
 10
182.9922260098
 20
180.4045927447
 30
0.0
 11
183.4922260098
 21
180.4045927447
 31
0.0
  0
LINE
  5
52
100
AcDbEntity
  8
0
  6
CONTINUOUS
 62
         7
100
AcDbLine
 10
183.4922260098
 20
180.4045927447
 30
0.0
 11
184.2422260098
 21
180.8376054466
 31
0.0
  0
LINE
  5
53
100
AcDbEntity
  8
0
  6
CONTINUOUS
 62
         7
100
AcDbLine
 10
184.2422260098
 20
180.8376054466
 30
0.0
 11
184.9922260098
 21
182.1366435523
 31
0.0
  0
LINE
  5
54
100
AcDbEntity
  8
0
  6
CONTINUOUS
 62
         7
100
AcDbLine
 10
184.9922260098
 20
182.1366435523
 30
0.0
 11
184.9922260098
 21
184.7347197637
 31
0.0
  0
LINE
  5
55
100
AcDbEntity
  8
0
  6
CONTINUOUS
 62
         7
100
AcDbLine
 10
184.9922260098
 20
184.7347197637
 30
0.0
 11
182.7422260098
 21
188.6318340807
 31
0.0
  0
LINE
  5
56
100
AcDbEntity
  8
0
  6
CONTINUOUS
 62
         7
100
AcDbLine
 10
182.7422260098
 20
188.6318340807
 30
0.0
 11
175.9922260098
 21
192.5289483977
 31
0.0
  0
LINE
  5
57
100
AcDbEntity
  8
0
  6
CONTINUOUS
 62
         7
100
AcDbLine
 10
182.7422260098
 20
204.2202913488
 30
0.0
 11
175.9922260098
 21
192.5289483977
 31
0.0
  0
LINE
  5
58
100
AcDbEntity
  8
0
  6
CONTINUOUS
 62
         7
100
AcDbLine
 10
196.2422260098
 20
204.2202913488
 30
0.0
 11
182.7422260098
 21
204.2202913488
 31
0.0
  0
LINE
  5
59
100
AcDbEntity
  8
0
  6
CONTINUOUS
 62
         7
100
AcDbLine
 10
189.4922260098
 20
192.5289483977
 30
0.0
 11
196.2422260098
 21
204.2202913488
 31
0.0
  0
LINE
  5
5A
100
AcDbEntity
  8
0
  6
CONTINUOUS
 62
         7
100
AcDbLine
 10
198.4922260098
 20
169.1462624955
 30
0.0
 11
196.2422260098
 21
173.0433768126
 31
0.0
  0
LINE
  5
5B
100
AcDbEntity
  8
0
  6
CONTINUOUS
 62
         7
100
AcDbLine
 10
200.7422260098
 20
167.8472243899
 30
0.0
 11
198.4922260098
 21
169.1462624955
 31
0.0
  0
LINE
  5
5C
100
AcDbEntity
  8
0
  6
CONTINUOUS
 62
         7
100
AcDbLine
 10
202.2422260098
 20
167.8472243899
 30
0.0
 11
200.7422260098
 21
167.8472243899
 31
0.0
  0
LINE
  5
5D
100
AcDbEntity
  8
0
  6
CONTINUOUS
 62
         7
100
AcDbLine
 10
202.9922260098
 20
168.2802370918
 30
0.0
 11
202.2422260098
 21
167.8472243899
 31
0.0
  0
LINE
  5
5E
100
AcDbEntity
  8
0
  6
CONTINUOUS
 62
         7
100
AcDbLine
 10
203.2422260098
 20
168.7132497936
 30
0.0
 11
202.9922260098
 21
168.2802370918
 31
0.0
  0
LINE
  5
5F
100
AcDbEntity
  8
0
  6
CONTINUOUS
 62
         7
100
AcDbLine
 10
202.9922260098
 20
169.1462624955
 30
0.0
 11
203.2422260098
 21
168.7132497936
 31
0.0
  0
LINE
  5
60
100
AcDbEntity
  8
0
  6
CONTINUOUS
 62
         7
100
AcDbLine
 10
203.4922260098
 20
169.1462624955
 30
0.0
 11
202.9922260098
 21
169.1462624955
 31
0.0
  0
LINE
  5
61
100
AcDbEntity
  8
0
  6
CONTINUOUS
 62
         7
100
AcDbLine
 10
203.7422260098
 20
168.7132497936
 30
0.0
 11
203.4922260098
 21
169.1462624955
 31
0.0
  0
LINE
  5
62
100
AcDbEntity
  8
0
  6
CONTINUOUS
 62
         7
100
AcDbLine
 10
203.7422260098
 20
167.8472243899
 30
0.0
 11
203.7422260098
 21
168.7132497936
 31
0.0
  0
LINE
  5
63
100
AcDbEntity
  8
0
  6
CONTINUOUS
 62
         7
100
AcDbLine
 10
202.9922260098
 20
166.5481862842
 30
0.0
 11
203.7422260098
 21
167.8472243899
 31
0.0
  0
LINE
  5
64
100
AcDbEntity
  8
0
  6
CONTINUOUS
 62
         7
100
AcDbLine
 10
200.7422260098
 20
165.2491481785
 30
0.0
 11
202.9922260098
 21
166.5481862842
 31
0.0
  0
LINE
  5
65
100
AcDbEntity
  8
0
  6
CONTINUOUS
 62
         7
100
AcDbLine
 10
196.2422260098
 20
165.2491481785
 30
0.0
 11
200.7422260098
 21
165.2491481785
 31
0.0
  0
LINE
  5
66
100
AcDbEntity
  8
0
  6
CONTINUOUS
 62
         7
100
AcDbLine
 10
196.2422260098
 20
165.2491481785
 30
0.0
 11
182.7422260098
 21
173.0433768126
 31
0.0
  0
LINE
  5
67
100
AcDbEntity
  8
0
  6
CONTINUOUS
 62
         7
100
AcDbLine
 10
182.7422260098
 20
173.0433768126
 30
0.0
 11
180.4922260098
 21
176.9404911296
 31
0.0
  0
LINE
  5
68
100
AcDbEntity
  8
0
  6
CONTINUOUS
 62
         7
100
AcDbLine
 10
180.4922260098
 20
176.9404911296
 30
0.0
 11
180.4922260098
 21
179.5385673409
 31
0.0
  0
LINE
  5
69
100
AcDbEntity
  8
0
  6
CONTINUOUS
 62
         7
100
AcDbLine
 10
180.4922260098
 20
179.5385673409
 30
0.0
 11
181.2422260098
 21
180.8376054466
 31
0.0
  0
LINE
  5
6A
100
AcDbEntity
  8
0
  6
CONTINUOUS
 62
         7
100
AcDbLine
 10
181.2422260098
 20
180.8376054466
 30
0.0
 11
181.9922260098
 21
181.2706181485
 31
0.0
  0
LINE
  5
6B
100
AcDbEntity
  8
0
  6
CONTINUOUS
 62
         7
100
AcDbLine
 10
181.9922260098
 20
181.2706181485
 30
0.0
 11
182.4922260098
 21
181.2706181485
 31
0.0
  0
LINE
  5
6C
100
AcDbEntity
  8
0
  6
CONTINUOUS
 62
         7
100
AcDbLine
 10
182.4922260098
 20
181.2706181485
 30
0.0
 11
182.7422260098
 21
180.8376054466
 31
0.0
  0
LINE
  5
6D
100
AcDbEntity
  8
0
  6
CONTINUOUS
 62
         7
100
AcDbLine
 10
182.4922260098
 20
180.4045927447
 30
0.0
 11
182.7422260098
 21
180.8376054466
 31
0.0
  0
LINE
  5
6E
100
AcDbEntity
  8
0
  6
CONTINUOUS
 62
         7
100
AcDbLine
 10
182.7422260098
 20
179.9715800428
 30
0.0
 11
182.4922260098
 21
180.4045927447
 31
0.0
  0
LINE
  5
6F
100
AcDbEntity
  8
0
  6
CONTINUOUS
 62
         7
100
AcDbLine
 10
183.4922260098
 20
179.5385673409
 30
0.0
 11
182.7422260098
 21
179.9715800428
 31
0.0
  0
LINE
  5
70
100
AcDbEntity
  8
0
  6
CONTINUOUS
 62
         7
100
AcDbLine
 10
184.9922260098
 20
179.5385673409
 30
0.0
 11
183.4922260098
 21
179.5385673409
 31
0.0
  0
LINE
  5
71
100
AcDbEntity
  8
0
  6
CONTINUOUS
 62
         7
100
AcDbLine
 10
187.2422260098
 20
180.8376054466
 30
0.0
 11
184.9922260098
 21
179.5385673409
 31
0.0
  0
LINE
  5
72
100
AcDbEntity
  8
0
  6
CONTINUOUS
 62
         7
100
AcDbLine
 10
189.4922260098
 20
184.7347197637
 30
0.0
 11
187.2422260098
 21
180.8376054466
 31
0.0
  0
LINE
  5
73
100
AcDbEntity
  8
0
  6
CONTINUOUS
 62
         7
100
AcDbLine
 10
189.4922260098
 20
192.5289483977
 30
0.0
 11
189.4922260098
 21
184.7347197637
 31
0.0
  0
LINE
  5
74
100
AcDbEntity
  8
0
  6
CONTINUOUS
 62
         7
100
AcDbLine
 10
189.4922260098
 20
192.5289483977
 30
0.0
 11
196.2422260098
 21
180.8376054466
 31
0.0
  0
LINE
  5
75
100
AcDbEntity
  8
0
  6
CONTINUOUS
 62
         7
100
AcDbLine
 10
196.2422260098
 20
173.0433768126
 30
0.0
 11
196.2422260098
 21
180.8376054466
 31
0.0
  0
LINE
  5
76
100
AcDbEntity
  8
0
  6
CONTINUOUS
 62
         7
100
AcDbLine
 10
169.2422260098
 20
154.8568433331
 30
0.0
 11
171.4922260098
 21
153.5578052274
 31
0.0
  0
LINE
  5
77
100
AcDbEntity
  8
0
  6
CONTINUOUS
 62
         7
100
AcDbLine
 10
168.4922260098
 20
156.1558814388
 30
0.0
 11
169.2422260098
 21
154.8568433331
 31
0.0
  0
LINE
  5
78
100
AcDbEntity
  8
0
  6
CONTINUOUS
 62
         7
100
AcDbLine
 10
168.4922260098
 20
157.0219068426
 30
0.0
 11
168.4922260098
 21
156.1558814388
 31
0.0
  0
LINE
  5
79
100
AcDbEntity
  8
0
  6
CONTINUOUS
 62
         7
100
AcDbLine
 10
168.7422260098
 20
157.4549195444
 30
0.0
 11
168.4922260098
 21
157.0219068426
 31
0.0
  0
LINE
  5
7A
100
AcDbEntity
  8
0
  6
CONTINUOUS
 62
         7
100
AcDbLine
 10
169.2422260098
 20
157.4549195444
 30
0.0
 11
168.7422260098
 21
157.4549195444
 31
0.0
  0
LINE
  5
7B
100
AcDbEntity
  8
0
  6
CONTINUOUS
 62
         7
100
AcDbLine
 10
168.9922260098
 20
157.0219068426
 30
0.0
 11
169.2422260098
 21
157.4549195444
 31
0.0
  0
LINE
  5
7C
100
AcDbEntity
  8
0
  6
CONTINUOUS
 62
         7
100
AcDbLine
 10
169.2422260098
 20
156.5888941407
 30
0.0
 11
168.9922260098
 21
157.0219068426
 31
0.0
  0
LINE
  5
7D
100
AcDbEntity
  8
0
  6
CONTINUOUS
 62
         7
100
AcDbLine
 10
169.9922260098
 20
156.1558814388
 30
0.0
 11
169.2422260098
 21
156.5888941407
 31
0.0
  0
LINE
  5
7E
100
AcDbEntity
  8
0
  6
CONTINUOUS
 62
         7
100
AcDbLine
 10
171.4922260098
 20
156.1558814388
 30
0.0
 11
169.9922260098
 21
156.1558814388
 31
0.0
  0
LINE
  5
7F
100
AcDbEntity
  8
0
  6
CONTINUOUS
 62
         7
100
AcDbLine
 10
173.7422260098
 20
157.4549195444
 30
0.0
 11
171.4922260098
 21
156.1558814388
 31
0.0
  0
LINE
  5
80
100
AcDbEntity
  8
0
  6
CONTINUOUS
 62
         7
100
AcDbLine
 10
175.9922260098
 20
161.3520338615
 30
0.0
 11
173.7422260098
 21
157.4549195444
 31
0.0
  0
LINE
  5
81
100
AcDbEntity
  8
0
  6
CONTINUOUS
 62
         7
100
AcDbLine
 10
175.9922260098
 20
161.3520338615
 30
0.0
 11
175.9922260098
 21
176.9404911296
 31
0.0
  0
LINE
  5
82
100
AcDbEntity
  8
0
  6
CONTINUOUS
 62
         7
100
AcDbLine
 10
175.9922260098
 20
176.9404911296
 30
0.0
 11
178.2422260098
 21
180.8376054466
 31
0.0
  0
LINE
  5
83
100
AcDbEntity
  8
0
  6
CONTINUOUS
 62
         7
100
AcDbLine
 10
178.2422260098
 20
180.8376054466
 30
0.0
 11
180.4922260098
 21
182.1366435523
 31
0.0
  0
LINE
  5
84
100
AcDbEntity
  8
0
  6
CONTINUOUS
 62
         7
100
AcDbLine
 10
180.4922260098
 20
182.1366435523
 30
0.0
 11
181.9922260098
 21
182.1366435523
 31
0.0
  0
LINE
  5
85
100
AcDbEntity
  8
0
  6
CONTINUOUS
 62
         7
100
AcDbLine
 10
181.9922260098
 20
182.1366435523
 30
0.0
 11
182.7422260098
 21
181.7036308504
 31
0.0
  0
LINE
  5
86
100
AcDbEntity
  8
0
  6
CONTINUOUS
 62
         7
100
AcDbLine
 10
182.7422260098
 20
181.7036308504
 30
0.0
 11
182.9922260098
 21
181.2706181485
 31
0.0
  0
LINE
  5
87
100
AcDbEntity
  8
0
  6
CONTINUOUS
 62
         7
100
AcDbLine
 10
182.9922260098
 20
181.2706181485
 30
0.0
 11
182.7422260098
 21
180.8376054466
 31
0.0
  0
LINE
  5
88
100
AcDbEntity
  8
0
  6
CONTINUOUS
 62
         7
100
AcDbLine
 10
182.7422260098
 20
180.8376054466
 30
0.0
 11
182.4922260098
 21
181.2706181485
 31
0.0
  0
LINE
  5
89
100
AcDbEntity
  8
0
  6
CONTINUOUS
 62
         7
100
AcDbLine
 10
182.4922260098
 20
181.2706181485
 30
0.0
 11
181.9922260098
 21
181.2706181485
 31
0.0
  0
LINE
  5
8A
100
AcDbEntity
  8
0
  6
CONTINUOUS
 62
         7
100
AcDbLine
 10
181.9922260098
 20
181.2706181485
 30
0.0
 11
181.2422260098
 21
180.8376054466
 31
0.0
  0
LINE
  5
8B
100
AcDbEntity
  8
0
  6
CONTINUOUS
 62
         7
100
AcDbLine
 10
181.2422260098
 20
180.8376054466
 30
0.0
 11
180.4922260098
 21
179.5385673409
 31
0.0
  0
LINE
  5
8C
100
AcDbEntity
  8
0
  6
CONTINUOUS
 62
         7
100
AcDbLine
 10
180.4922260098
 20
179.5385673409
 30
0.0
 11
180.4922260098
 21
176.9404911296
 31
0.0
  0
LINE
  5
8D
100
AcDbEntity
  8
0
  6
CONTINUOUS
 62
         7
100
AcDbLine
 10
180.4922260098
 20
176.9404911296
 30
0.0
 11
182.7422260098
 21
173.0433768126
 31
0.0
  0
LINE
  5
8E
100
AcDbEntity
  8
0
  6
CONTINUOUS
 62
         7
100
AcDbLine
 10
182.7422260098
 20
173.0433768126
 30
0.0
 11
189.4922260098
 21
169.1462624955
 31
0.0
  0
LINE
  5
8F
100
AcDbEntity
  8
0
  6
CONTINUOUS
 62
         7
100
AcDbLine
 10
182.7422260098
 20
157.4549195444
 30
0.0
 11
189.4922260098
 21
169.1462624955
 31
0.0
  0
LINE
  5
90
100
AcDbEntity
  8
0
  6
CONTINUOUS
 62
         7
100
AcDbLine
 10
175.9922260098
 20
153.5578052274
 30
0.0
 11
182.7422260098
 21
157.4549195444
 31
0.0
  0
LINE
  5
91
100
AcDbEntity
  8
0
  6
CONTINUOUS
 62
         7
100
AcDbLine
 10
171.4922260098
 20
153.5578052274
 30
0.0
 11
175.9922260098
 21
153.5578052274
 31
0.0
  0
LINE
  5
92
100
AcDbEntity
  8
0
  6
CONTINUOUS
 62
         7
100
AcDbLine
 10
169.2422260098
 20
180.8376054466
 30
0.0
 11
155.7422260098
 21
180.8376054466
 31
0.0
  0
LINE
  5
93
100
AcDbEntity
  8
0
  6
CONTINUOUS
 62
         7
100
AcDbLine
 10
169.2422260098
 20
180.8376054466
 30
0.0
 11
175.9922260098
 21
184.7347197637
 31
0.0
  0
LINE
  5
94
100
AcDbEntity
  8
0
  6
CONTINUOUS
 62
         7
100
AcDbLine
 10
175.9922260098
 20
184.7347197637
 30
0.0
 11
180.4922260098
 21
184.7347197637
 31
0.0
  0
LINE
  5
95
100
AcDbEntity
  8
0
  6
CONTINUOUS
 62
         7
100
AcDbLine
 10
180.4922260098
 20
184.7347197637
 30
0.0
 11
182.7422260098
 21
183.435681658
 31
0.0
  0
LINE
  5
96
100
AcDbEntity
  8
0
  6
CONTINUOUS
 62
         7
100
AcDbLine
 10
182.7422260098
 20
183.435681658
 30
0.0
 11
183.4922260098
 21
182.1366435523
 31
0.0
  0
LINE
  5
97
100
AcDbEntity
  8
0
  6
CONTINUOUS
 62
         7
100
AcDbLine
 10
183.4922260098
 20
182.1366435523
 30
0.0
 11
183.4922260098
 21
181.2706181485
 31
0.0
  0
LINE
  5
98
100
AcDbEntity
  8
0
  6
CONTINUOUS
 62
         7
100
AcDbLine
 10
183.4922260098
 20
181.2706181485
 30
0.0
 11
183.2422260098
 21
180.8376054466
 31
0.0
  0
LINE
  5
99
100
AcDbEntity
  8
0
  6
CONTINUOUS
 62
         7
100
AcDbLine
 10
183.2422260098
 20
180.8376054466
 30
0.0
 11
182.7422260098
 21
180.8376054466
 31
0.0
  0
LINE
  5
9A
100
AcDbEntity
  8
0
  6
CONTINUOUS
 62
         7
100
AcDbLine
 10
182.7422260098
 20
180.8376054466
 30
0.0
 11
182.9922260098
 21
181.2706181485
 31
0.0
  0
LINE
  5
9B
100
AcDbEntity
  8
0
  6
CONTINUOUS
 62
         7
100
AcDbLine
 10
182.9922260098
 20
181.2706181485
 30
0.0
 11
182.7422260098
 21
181.7036308504
 31
0.0
  0
LINE
  5
9C
100
AcDbEntity
  8
0
  6
CONTINUOUS
 62
         7
100
AcDbLine
 10
182.7422260098
 20
181.7036308504
 30
0.0
 11
181.9922260098
 21
182.1366435523
 31
0.0
  0
LINE
  5
9D
100
AcDbEntity
  8
0
  6
CONTINUOUS
 62
         7
100
AcDbLine
 10
181.9922260098
 20
182.1366435523
 30
0.0
 11
180.4922260098
 21
182.1366435523
 31
0.0
  0
LINE
  5
9E
100
AcDbEntity
  8
0
  6
CONTINUOUS
 62
         7
100
AcDbLine
 10
180.4922260098
 20
182.1366435523
 30
0.0
 11
178.2422260098
 21
180.8376054466
 31
0.0
  0
LINE
  5
9F
100
AcDbEntity
  8
0
  6
CONTINUOUS
 62
         7
100
AcDbLine
 10
178.2422260098
 20
180.8376054466
 30
0.0
 11
175.9922260098
 21
176.9404911296
 31
0.0
  0
LINE
  5
A0
100
AcDbEntity
  8
0
  6
CONTINUOUS
 62
         7
100
AcDbLine
 10
175.9922260098
 20
176.9404911296
 30
0.0
 11
175.9922260098
 21
169.1462624955
 31
0.0
  0
LINE
  5
A1
100
AcDbEntity
  8
0
  6
CONTINUOUS
 62
         7
100
AcDbLine
 10
155.7422260098
 20
180.8376054466
 30
0.0
 11
175.9922260098
 21
169.1462624955
 31
0.0
  0
LINE
  5
A2
100
AcDbEntity
  8
0
  6
CONTINUOUS
 62
         7
100
AcDbLine
 10
175.9922260098
 20
169.1462624955
 30
0.0
 11
175.9922260098
 21
161.3520338615
 31
0.0
  0
LINE
  5
A3
100
AcDbEntity
  8
0
  6
CONTINUOUS
 62
         7
100
AcDbLine
 10
175.9922260098
 20
161.3520338615
 30
0.0
 11
173.7422260098
 21
157.4549195444
 31
0.0
  0
LINE
  5
A4
100
AcDbEntity
  8
0
  6
CONTINUOUS
 62
         7
100
AcDbLine
 10
173.7422260098
 20
157.4549195444
 30
0.0
 11
171.4922260098
 21
156.1558814388
 31
0.0
  0
LINE
  5
A5
100
AcDbEntity
  8
0
  6
CONTINUOUS
 62
         7
100
AcDbLine
 10
171.4922260098
 20
156.1558814388
 30
0.0
 11
169.9922260098
 21
156.1558814388
 31
0.0
  0
LINE
  5
A6
100
AcDbEntity
  8
0
  6
CONTINUOUS
 62
         7
100
AcDbLine
 10
169.9922260098
 20
156.1558814388
 30
0.0
 11
169.2422260098
 21
156.5888941407
 31
0.0
  0
LINE
  5
A7
100
AcDbEntity
  8
0
  6
CONTINUOUS
 62
         7
100
AcDbLine
 10
169.2422260098
 20
156.5888941407
 30
0.0
 11
168.9922260098
 21
157.0219068426
 31
0.0
  0
LINE
  5
A8
100
AcDbEntity
  8
0
  6
CONTINUOUS
 62
         7
100
AcDbLine
 10
168.9922260098
 20
157.0219068426
 30
0.0
 11
169.2422260098
 21
157.4549195444
 31
0.0
  0
LINE
  5
A9
100
AcDbEntity
  8
0
  6
CONTINUOUS
 62
         7
100
AcDbLine
 10
169.7422260098
 20
157.4549195444
 30
0.0
 11
169.2422260098
 21
157.4549195444
 31
0.0
  0
LINE
  5
AA
100
AcDbEntity
  8
0
  6
CONTINUOUS
 62
         7
100
AcDbLine
 10
169.9922260098
 20
157.8879322463
 30
0.0
 11
169.7422260098
 21
157.4549195444
 31
0.0
  0
LINE
  5
AB
100
AcDbEntity
  8
0
  6
CONTINUOUS
 62
         7
100
AcDbLine
 10
169.9922260098
 20
158.7539576501
 30
0.0
 11
169.9922260098
 21
157.8879322463
 31
0.0
  0
LINE
  5
AC
100
AcDbEntity
  8
0
  6
CONTINUOUS
 62
         7
100
AcDbLine
 10
169.2422260098
 20
160.0529957558
 30
0.0
 11
169.9922260098
 21
158.7539576501
 31
0.0
  0
LINE
  5
AD
100
AcDbEntity
  8
0
  6
CONTINUOUS
 62
         7
100
AcDbLine
 10
166.9922260098
 20
161.3520338615
 30
0.0
 11
169.2422260098
 21
160.0529957558
 31
0.0
  0
LINE
  5
AE
100
AcDbEntity
  8
0
  6
CONTINUOUS
 62
         7
100
AcDbLine
 10
162.4922260098
 20
161.3520338615
 30
0.0
 11
166.9922260098
 21
161.3520338615
 31
0.0
  0
LINE
  5
AF
100
AcDbEntity
  8
0
  6
CONTINUOUS
 62
         7
100
AcDbLine
 10
155.7422260098
 20
157.4549195444
 30
0.0
 11
162.4922260098
 21
161.3520338615
 31
0.0
  0
LINE
  5
B0
100
AcDbEntity
  8
0
  6
CONTINUOUS
 62
         7
100
AcDbLine
 10
155.7422260098
 20
157.4549195444
 30
0.0
 11
162.4922260098
 21
169.1462624955
 31
0.0
  0
LINE
  5
B1
100
AcDbEntity
  8
0
  6
CONTINUOUS
 62
         7
100
AcDbLine
 10
155.7422260098
 20
180.8376054466
 30
0.0
 11
162.4922260098
 21
169.1462624955
 31
0.0
  0
LINE
  5
B2
100
AcDbEntity
  8
0
  6
CONTINUOUS
 62
         7
100
AcDbLine
 10
175.9922260098
 20
169.1462624955
 30
0.0
 11
155.7422260098
 21
180.8376054466
 31
0.0
  0
LINE
  5
B3
100
AcDbEntity
  8
0
  6
CONTINUOUS
 62
         7
100
AcDbLine
 10
168.4922260098
 20
157.8879322463
 30
0.0
 11
168.9922260098
 21
157.8879322463
 31
0.0
  0
LINE
  5
B4
100
AcDbEntity
  8
0
  6
CONTINUOUS
 62
         7
100
AcDbLine
 10
167.7422260098
 20
157.4549195444
 30
0.0
 11
168.4922260098
 21
157.8879322463
 31
0.0
  0
LINE
  5
B5
100
AcDbEntity
  8
0
  6
CONTINUOUS
 62
         7
100
AcDbLine
 10
166.9922260098
 20
156.1558814388
 30
0.0
 11
167.7422260098
 21
157.4549195444
 31
0.0
  0
LINE
  5
B6
100
AcDbEntity
  8
0
  6
CONTINUOUS
 62
         7
100
AcDbLine
 10
166.9922260098
 20
153.5578052274
 30
0.0
 11
166.9922260098
 21
156.1558814388
 31
0.0
  0
LINE
  5
B7
100
AcDbEntity
  8
0
  6
CONTINUOUS
 62
         7
100
AcDbLine
 10
169.2422260098
 20
149.6606909104
 30
0.0
 11
166.9922260098
 21
153.5578052274
 31
0.0
  0
LINE
  5
B8
100
AcDbEntity
  8
0
  6
CONTINUOUS
 62
         7
100
AcDbLine
 10
175.9922260098
 20
145.7635765934
 30
0.0
 11
169.2422260098
 21
149.6606909104
 31
0.0
  0
LINE
  5
B9
100
AcDbEntity
  8
0
  6
CONTINUOUS
 62
         7
100
AcDbLine
 10
175.9922260098
 20
145.7635765934
 30
0.0
 11
162.4922260098
 21
145.7635765934
 31
0.0
  0
LINE
  5
BA
100
AcDbEntity
  8
0
  6
CONTINUOUS
 62
         7
100
AcDbLine
 10
162.4922260098
 20
145.7635765934
 30
0.0
 11
155.7422260098
 21
157.4549195444
 31
0.0
  0
LINE
  5
BB
100
AcDbEntity
  8
0
  6
CONTINUOUS
 62
         7
100
AcDbLine
 10
155.7422260098
 20
157.4549195444
 30
0.0
 11
162.4922260098
 21
161.3520338615
 31
0.0
  0
LINE
  5
BC
100
AcDbEntity
  8
0
  6
CONTINUOUS
 62
         7
100
AcDbLine
 10
162.4922260098
 20
161.3520338615
 30
0.0
 11
166.9922260098
 21
161.3520338615
 31
0.0
  0
LINE
  5
BD
100
AcDbEntity
  8
0
  6
CONTINUOUS
 62
         7
100
AcDbLine
 10
166.9922260098
 20
161.3520338615
 30
0.0
 11
169.2422260098
 21
160.0529957558
 31
0.0
  0
LINE
  5
BE
100
AcDbEntity
  8
0
  6
CONTINUOUS
 62
         7
100
AcDbLine
 10
169.2422260098
 20
160.0529957558
 30
0.0
 11
169.9922260098
 21
158.7539576501
 31
0.0
  0
LINE
  5
BF
100
AcDbEntity
  8
0
  6
CONTINUOUS
 62
         7
100
AcDbLine
 10
169.9922260098
 20
158.7539576501
 30
0.0
 11
169.9922260098
 21
157.8879322463
 31
0.0
  0
LINE
  5
C0
100
AcDbEntity
  8
0
  6
CONTINUOUS
 62
         7
100
AcDbLine
 10
169.9922260098
 20
157.8879322463
 30
0.0
 11
169.7422260098
 21
157.4549195444
 31
0.0
  0
LINE
  5
C1
100
AcDbEntity
  8
0
  6
CONTINUOUS
 62
         7
100
AcDbLine
 10
169.7422260098
 20
157.4549195444
 30
0.0
 11
169.2422260098
 21
157.4549195444
 31
0.0
  0
LINE
  5
C2
100
AcDbEntity
  8
0
  6
CONTINUOUS
 62
         7
100
AcDbLine
 10
168.9922260098
 20
157.8879322463
 30
0.0
 11
169.2422260098
 21
157.4549195444
 31
0.0
  0
LINE
  5
C3
100
AcDbEntity
  8
0
  6
CONTINUOUS
 62
         7
100
AcDbLine
 10
142.2422260098
 20
180.8376054466
 30
0.0
 11
155.7422260098
 21
180.8376054466
 31
0.0
  0
LINE
  5
C4
100
AcDbEntity
  8
0
  6
CONTINUOUS
 62
         7
100
AcDbLine
 10
155.7422260098
 20
180.8376054466
 30
0.0
 11
162.4922260098
 21
169.1462624955
 31
0.0
  0
LINE
  5
C5
100
AcDbEntity
  8
0
  6
CONTINUOUS
 62
         7
100
AcDbLine
 10
162.4922260098
 20
169.1462624955
 30
0.0
 11
148.9922260098
 21
169.1462624955
 31
0.0
  0
LINE
  5
C6
100
AcDbEntity
  8
0
  6
CONTINUOUS
 62
         7
100
AcDbLine
 10
142.2422260098
 20
157.4549195444
 30
0.0
 11
142.2422260098
 21
180.8376054466
 31
0.0
  0
LINE
  5
C7
100
AcDbEntity
  8
0
  6
CONTINUOUS
 62
         7
100
AcDbLine
 10
148.9922260098
 20
169.1462624955
 30
0.0
 11
142.2422260098
 21
157.4549195444
 31
0.0
  0
LINE
  5
C8
100
AcDbEntity
  8
0
  6
CONTINUOUS
 62
         7
100
AcDbLine
 10
148.9922260098
 20
145.7635765934
 30
0.0
 11
162.4922260098
 21
145.7635765934
 31
0.0
  0
LINE
  5
C9
100
AcDbEntity
  8
0
  6
CONTINUOUS
 62
         7
100
AcDbLine
 10
162.4922260098
 20
169.1462624955
 30
0.0
 11
148.9922260098
 21
169.1462624955
 31
0.0
  0
LINE
  5
CA
100
AcDbEntity
  8
0
  6
CONTINUOUS
 62
         7
100
AcDbLine
 10
162.4922260098
 20
169.1462624955
 30
0.0
 11
155.7422260098
 21
157.4549195444
 31
0.0
  0
LINE
  5
CB
100
AcDbEntity
  8
0
  6
CONTINUOUS
 62
         7
100
AcDbLine
 10
155.7422260098
 20
157.4549195444
 30
0.0
 11
162.4922260098
 21
145.7635765934
 31
0.0
  0
LINE
  5
CC
100
AcDbEntity
  8
0
  6
CONTINUOUS
 62
         7
100
AcDbLine
 10
148.9922260098
 20
145.7635765934
 30
0.0
 11
148.9922260098
 21
169.1462624955
 31
0.0
  0
LINE
  5
CD
100
AcDbEntity
  8
0
  6
CONTINUOUS
 62
         7
100
AcDbLine
 10
162.4922260098
 20
145.7635765934
 30
0.0
 11
155.7422260098
 21
134.0722336423
 31
0.0
  0
LINE
  5
CE
100
AcDbEntity
  8
0
  6
CONTINUOUS
 62
         7
100
AcDbLine
 10
155.7422260098
 20
134.0722336423
 30
0.0
 11
142.2422260098
 21
134.0722336423
 31
0.0
  0
LINE
  5
CF
100
AcDbEntity
  8
0
  6
CONTINUOUS
 62
         7
100
AcDbLine
 10
148.9922260098
 20
145.7635765934
 30
0.0
 11
142.2422260098
 21
134.0722336423
 31
0.0
  0
LINE
  5
D0
100
AcDbEntity
  8
0
  6
CONTINUOUS
 62
         7
100
AcDbLine
 10
162.4922260098
 20
145.7635765934
 30
0.0
 11
148.9922260098
 21
145.7635765934
 31
0.0
  0
LINE
  5
D1
100
AcDbEntity
  8
0
  6
CONTINUOUS
 62
         7
100
AcDbLine
 10
148.9922260098
 20
169.1462624955
 30
0.0
 11
148.9922260098
 21
145.7635765934
 31
0.0
  0
LINE
  5
D2
100
AcDbEntity
  8
0
  6
CONTINUOUS
 62
         7
100
AcDbLine
 10
148.9922260098
 20
169.1462624955
 30
0.0
 11
142.2422260098
 21
157.4549195444
 31
0.0
  0
LINE
  5
D3
100
AcDbEntity
  8
0
  6
CONTINUOUS
 62
         7
100
AcDbLine
 10
142.2422260098
 20
134.0722336423
 30
0.0
 11
148.9922260098
 21
145.7635765934
 31
0.0
  0
LINE
  5
D4
100
AcDbEntity
  8
0
  6
CONTINUOUS
 62
         7
100
AcDbLine
 10
142.2422260098
 20
134.0722336423
 30
0.0
 11
142.2422260098
 21
157.4549195444
 31
0.0
  0
LINE
  5
D5
100
AcDbEntity
  8
0
  6
CONTINUOUS
 62
         7
100
AcDbLine
 10
191.7422260098
 20
149.6606909104
 30
0.0
 11
189.4922260098
 21
153.5578052274
 31
0.0
  0
LINE
  5
D6
100
AcDbEntity
  8
0
  6
CONTINUOUS
 62
         7
100
AcDbLine
 10
191.7422260098
 20
147.062614699
 30
0.0
 11
191.7422260098
 21
149.6606909104
 31
0.0
  0
LINE
  5
D7
100
AcDbEntity
  8
0
  6
CONTINUOUS
 62
         7
100
AcDbLine
 10
190.9922260098
 20
145.7635765934
 30
0.0
 11
191.7422260098
 21
147.062614699
 31
0.0
  0
LINE
  5
D8
100
AcDbEntity
  8
0
  6
CONTINUOUS
 62
         7
100
AcDbLine
 10
190.2422260098
 20
145.3305638915
 30
0.0
 11
190.9922260098
 21
145.7635765934
 31
0.0
  0
LINE
  5
D9
100
AcDbEntity
  8
0
  6
CONTINUOUS
 62
         7
100
AcDbLine
 10
189.7422260098
 20
145.3305638915
 30
0.0
 11
190.2422260098
 21
145.3305638915
 31
0.0
  0
LINE
  5
DA
100
AcDbEntity
  8
0
  6
CONTINUOUS
 62
         7
100
AcDbLine
 10
189.4922260098
 20
145.7635765934
 30
0.0
 11
189.7422260098
 21
145.3305638915
 31
0.0
  0
LINE
  5
DB
100
AcDbEntity
  8
0
  6
CONTINUOUS
 62
         7
100
AcDbLine
 10
189.9922260098
 20
145.7635765934
 30
0.0
 11
189.4922260098
 21
145.7635765934
 31
0.0
  0
LINE
  5
DC
100
AcDbEntity
  8
0
  6
CONTINUOUS
 62
         7
100
AcDbLine
 10
190.2422260098
 20
146.1965892952
 30
0.0
 11
189.9922260098
 21
145.7635765934
 31
0.0
  0
LINE
  5
DD
100
AcDbEntity
  8
0
  6
CONTINUOUS
 62
         7
100
AcDbLine
 10
190.2422260098
 20
147.062614699
 30
0.0
 11
190.2422260098
 21
146.1965892952
 31
0.0
  0
LINE
  5
DE
100
AcDbEntity
  8
0
  6
CONTINUOUS
 62
         7
100
AcDbLine
 10
189.4922260098
 20
148.3616528047
 30
0.0
 11
190.2422260098
 21
147.062614699
 31
0.0
  0
LINE
  5
DF
100
AcDbEntity
  8
0
  6
CONTINUOUS
 62
         7
100
AcDbLine
 10
187.2422260098
 20
149.6606909104
 30
0.0
 11
189.4922260098
 21
148.3616528047
 31
0.0
  0
LINE
  5
E0
100
AcDbEntity
  8
0
  6
CONTINUOUS
 62
         7
100
AcDbLine
 10
182.7422260098
 20
149.6606909104
 30
0.0
 11
187.2422260098
 21
149.6606909104
 31
0.0
  0
LINE
  5
E1
100
AcDbEntity
  8
0
  6
CONTINUOUS
 62
         7
100
AcDbLine
 10
175.9922260098
 20
145.7635765934
 30
0.0
 11
182.7422260098
 21
149.6606909104
 31
0.0
  0
LINE
  5
E2
100
AcDbEntity
  8
0
  6
CONTINUOUS
 62
         7
100
AcDbLine
 10
175.9922260098
 20
145.7635765934
 30
0.0
 11
169.2422260098
 21
149.6606909104
 31
0.0
  0
LINE
  5
E3
100
AcDbEntity
  8
0
  6
CONTINUOUS
 62
         7
100
AcDbLine
 10
169.2422260098
 20
149.6606909104
 30
0.0
 11
166.9922260098
 21
153.5578052274
 31
0.0
  0
LINE
  5
E4
100
AcDbEntity
  8
0
  6
CONTINUOUS
 62
         7
100
AcDbLine
 10
166.9922260098
 20
153.5578052274
 30
0.0
 11
166.9922260098
 21
156.1558814388
 31
0.0
  0
LINE
  5
E5
100
AcDbEntity
  8
0
  6
CONTINUOUS
 62
         7
100
AcDbLine
 10
166.9922260098
 20
156.1558814388
 30
0.0
 11
167.7422260098
 21
157.4549195444
 31
0.0
  0
LINE
  5
E6
100
AcDbEntity
  8
0
  6
CONTINUOUS
 62
         7
100
AcDbLine
 10
167.7422260098
 20
157.4549195444
 30
0.0
 11
168.4922260098
 21
157.8879322463
 31
0.0
  0
LINE
  5
E7
100
AcDbEntity
  8
0
  6
CONTINUOUS
 62
         7
100
AcDbLine
 10
168.4922260098
 20
157.8879322463
 30
0.0
 11
168.9922260098
 21
157.8879322463
 31
0.0
  0
LINE
  5
E8
100
AcDbEntity
  8
0
  6
CONTINUOUS
 62
         7
100
AcDbLine
 10
168.9922260098
 20
157.8879322463
 30
0.0
 11
169.2422260098
 21
157.4549195444
 31
0.0
  0
LINE
  5
E9
100
AcDbEntity
  8
0
  6
CONTINUOUS
 62
         7
100
AcDbLine
 10
169.2422260098
 20
157.4549195444
 30
0.0
 11
168.7422260098
 21
157.4549195444
 31
0.0
  0
LINE
  5
EA
100
AcDbEntity
  8
0
  6
CONTINUOUS
 62
         7
100
AcDbLine
 10
168.7422260098
 20
157.4549195444
 30
0.0
 11
168.4922260098
 21
157.0219068426
 31
0.0
  0
LINE
  5
EB
100
AcDbEntity
  8
0
  6
CONTINUOUS
 62
         7
100
AcDbLine
 10
168.4922260098
 20
157.0219068426
 30
0.0
 11
168.4922260098
 21
156.1558814388
 31
0.0
  0
LINE
  5
EC
100
AcDbEntity
  8
0
  6
CONTINUOUS
 62
         7
100
AcDbLine
 10
168.4922260098
 20
156.1558814388
 30
0.0
 11
169.2422260098
 21
154.8568433331
 31
0.0
  0
LINE
  5
ED
100
AcDbEntity
  8
0
  6
CONTINUOUS
 62
         7
100
AcDbLine
 10
169.2422260098
 20
154.8568433331
 30
0.0
 11
171.4922260098
 21
153.5578052274
 31
0.0
  0
LINE
  5
EE
100
AcDbEntity
  8
0
  6
CONTINUOUS
 62
         7
100
AcDbLine
 10
171.4922260098
 20
153.5578052274
 30
0.0
 11
175.9922260098
 21
153.5578052274
 31
0.0
  0
LINE
  5
EF
100
AcDbEntity
  8
0
  6
CONTINUOUS
 62
         7
100
AcDbLine
 10
175.9922260098
 20
153.5578052274
 30
0.0
 11
182.7422260098
 21
157.4549195444
 31
0.0
  0
LINE
  5
F0
100
AcDbEntity
  8
0
  6
CONTINUOUS
 62
         7
100
AcDbLine
 10
189.4922260098
 20
153.5578052274
 30
0.0
 11
182.7422260098
 21
157.4549195444
 31
0.0
  0
LINE
  5
F1
100
AcDbEntity
  8
0
  6
CONTINUOUS
 62
         7
100
AcDbLine
 10
196.2422260098
 20
165.2491481785
 30
0.0
 11
189.4922260098
 21
169.1462624955
 31
0.0
  0
LINE
  5
F2
100
AcDbEntity
  8
0
  6
CONTINUOUS
 62
         7
100
AcDbLine
 10
200.7422260098
 20
165.2491481785
 30
0.0
 11
196.2422260098
 21
165.2491481785
 31
0.0
  0
LINE
  5
F3
100
AcDbEntity
  8
0
  6
CONTINUOUS
 62
         7
100
AcDbLine
 10
202.9922260098
 20
166.5481862842
 30
0.0
 11
200.7422260098
 21
165.2491481785
 31
0.0
  0
LINE
  5
F4
100
AcDbEntity
  8
0
  6
CONTINUOUS
 62
         7
100
AcDbLine
 10
203.7422260098
 20
167.8472243899
 30
0.0
 11
202.9922260098
 21
166.5481862842
 31
0.0
  0
LINE
  5
F5
100
AcDbEntity
  8
0
  6
CONTINUOUS
 62
         7
100
AcDbLine
 10
203.7422260098
 20
168.7132497936
 30
0.0
 11
203.7422260098
 21
167.8472243899
 31
0.0
  0
LINE
  5
F6
100
AcDbEntity
  8
0
  6
CONTINUOUS
 62
         7
100
AcDbLine
 10
203.4922260098
 20
169.1462624955
 30
0.0
 11
203.7422260098
 21
168.7132497936
 31
0.0
  0
LINE
  5
F7
100
AcDbEntity
  8
0
  6
CONTINUOUS
 62
         7
100
AcDbLine
 10
202.9922260098
 20
169.1462624955
 30
0.0
 11
203.4922260098
 21
169.1462624955
 31
0.0
  0
LINE
  5
F8
100
AcDbEntity
  8
0
  6
CONTINUOUS
 62
         7
100
AcDbLine
 10
203.2422260098
 20
169.5792751974
 30
0.0
 11
202.9922260098
 21
169.1462624955
 31
0.0
  0
LINE
  5
F9
100
AcDbEntity
  8
0
  6
CONTINUOUS
 62
         7
100
AcDbLine
 10
203.7422260098
 20
169.5792751974
 30
0.0
 11
203.2422260098
 21
169.5792751974
 31
0.0
  0
LINE
  5
FA
100
AcDbEntity
  8
0
  6
CONTINUOUS
 62
         7
100
AcDbLine
 10
204.4922260098
 20
169.1462624955
 30
0.0
 11
203.7422260098
 21
169.5792751974
 31
0.0
  0
LINE
  5
FB
100
AcDbEntity
  8
0
  6
CONTINUOUS
 62
         7
100
AcDbLine
 10
205.2422260098
 20
167.8472243899
 30
0.0
 11
204.4922260098
 21
169.1462624955
 31
0.0
  0
LINE
  5
FC
100
AcDbEntity
  8
0
  6
CONTINUOUS
 62
         7
100
AcDbLine
 10
205.2422260098
 20
165.2491481785
 30
0.0
 11
205.2422260098
 21
167.8472243899
 31
0.0
  0
LINE
  5
FD
100
AcDbEntity
  8
0
  6
CONTINUOUS
 62
         7
100
AcDbLine
 10
202.9922260098
 20
161.3520338615
 30
0.0
 11
205.2422260098
 21
165.2491481785
 31
0.0
  0
LINE
  5
FE
100
AcDbEntity
  8
0
  6
CONTINUOUS
 62
         7
100
AcDbLine
 10
196.2422260098
 20
157.4549195444
 30
0.0
 11
202.9922260098
 21
161.3520338615
 31
0.0
  0
LINE
  5
FF
100
AcDbEntity
  8
0
  6
CONTINUOUS
 62
         7
100
AcDbLine
 10
196.2422260098
 20
157.4549195444
 30
0.0
 11
196.2422260098
 21
149.6606909104
 31
0.0
  0
LINE
  5
100
100
AcDbEntity
  8
0
  6
CONTINUOUS
 62
         7
100
AcDbLine
 10
196.2422260098
 20
149.6606909104
 30
0.0
 11
193.9922260098
 21
145.7635765934
 31
0.0
  0
LINE
  5
101
100
AcDbEntity
  8
0
  6
CONTINUOUS
 62
         7
100
AcDbLine
 10
193.9922260098
 20
145.7635765934
 30
0.0
 11
191.7422260098
 21
144.4645384877
 31
0.0
  0
LINE
  5
102
100
AcDbEntity
  8
0
  6
CONTINUOUS
 62
         7
100
AcDbLine
 10
191.7422260098
 20
144.4645384877
 30
0.0
 11
190.2422260098
 21
144.4645384877
 31
0.0
  0
LINE
  5
103
100
AcDbEntity
  8
0
  6
CONTINUOUS
 62
         7
100
AcDbLine
 10
190.2422260098
 20
144.4645384877
 30
0.0
 11
189.4922260098
 21
144.8975511896
 31
0.0
  0
LINE
  5
104
100
AcDbEntity
  8
0
  6
CONTINUOUS
 62
         7
100
AcDbLine
 10
189.4922260098
 20
144.8975511896
 30
0.0
 11
189.2422260098
 21
145.3305638915
 31
0.0
  0
LINE
  5
105
100
AcDbEntity
  8
0
  6
CONTINUOUS
 62
         7
100
AcDbLine
 10
189.2422260098
 20
145.3305638915
 30
0.0
 11
189.4922260098
 21
145.7635765934
 31
0.0
  0
LINE
  5
106
100
AcDbEntity
  8
0
  6
CONTINUOUS
 62
         7
100
AcDbLine
 10
189.4922260098
 20
145.7635765934
 30
0.0
 11
189.7422260098
 21
145.3305638915
 31
0.0
  0
LINE
  5
107
100
AcDbEntity
  8
0
  6
CONTINUOUS
 62
         7
100
AcDbLine
 10
189.7422260098
 20
145.3305638915
 30
0.0
 11
190.2422260098
 21
145.3305638915
 31
0.0
  0
LINE
  5
108
100
AcDbEntity
  8
0
  6
CONTINUOUS
 62
         7
100
AcDbLine
 10
190.2422260098
 20
145.3305638915
 30
0.0
 11
190.9922260098
 21
145.7635765934
 31
0.0
  0
LINE
  5
109
100
AcDbEntity
  8
0
  6
CONTINUOUS
 62
         7
100
AcDbLine
 10
190.9922260098
 20
145.7635765934
 30
0.0
 11
191.7422260098
 21
147.062614699
 31
0.0
  0
LINE
  5
10A
100
AcDbEntity
  8
0
  6
CONTINUOUS
 62
         7
100
AcDbLine
 10
191.7422260098
 20
147.062614699
 30
0.0
 11
191.7422260098
 21
149.6606909104
 31
0.0
  0
LINE
  5
10B
100
AcDbEntity
  8
0
  6
CONTINUOUS
 62
         7
100
AcDbLine
 10
191.7422260098
 20
149.6606909104
 30
0.0
 11
189.4922260098
 21
153.5578052274
 31
0.0
  0
LINE
  5
10C
100
AcDbEntity
  8
0
  6
CONTINUOUS
 62
         7
100
AcDbLine
 10
189.4922260098
 20
153.5578052274
 30
0.0
 11
182.7422260098
 21
157.4549195444
 31
0.0
  0
LINE
  5
10D
100
AcDbEntity
  8
0
  6
CONTINUOUS
 62
         7
100
AcDbLine
 10
182.7422260098
 20
157.4549195444
 30
0.0
 11
189.4922260098
 21
169.1462624955
 31
0.0
  0
LINE
  5
10E
100
AcDbEntity
  8
0
  6
CONTINUOUS
 62
         7
100
AcDbLine
 10
205.2422260098
 20
165.2491481785
 30
0.0
 11
202.9922260098
 21
161.3520338615
 31
0.0
  0
LINE
  5
10F
100
AcDbEntity
  8
0
  6
CONTINUOUS
 62
         7
100
AcDbLine
 10
205.2422260098
 20
167.8472243899
 30
0.0
 11
205.2422260098
 21
165.2491481785
 31
0.0
  0
LINE
  5
110
100
AcDbEntity
  8
0
  6
CONTINUOUS
 62
         7
100
AcDbLine
 10
204.4922260098
 20
169.1462624955
 30
0.0
 11
205.2422260098
 21
167.8472243899
 31
0.0
  0
LINE
  5
111
100
AcDbEntity
  8
0
  6
CONTINUOUS
 62
         7
100
AcDbLine
 10
203.7422260098
 20
169.5792751974
 30
0.0
 11
204.4922260098
 21
169.1462624955
 31
0.0
  0
LINE
  5
112
100
AcDbEntity
  8
0
  6
CONTINUOUS
 62
         7
100
AcDbLine
 10
203.2422260098
 20
169.5792751974
 30
0.0
 11
203.7422260098
 21
169.5792751974
 31
0.0
  0
LINE
  5
113
100
AcDbEntity
  8
0
  6
CONTINUOUS
 62
         7
100
AcDbLine
 10
202.9922260098
 20
169.1462624955
 30
0.0
 11
203.2422260098
 21
169.5792751974
 31
0.0
  0
LINE
  5
114
100
AcDbEntity
  8
0
  6
CONTINUOUS
 62
         7
100
AcDbLine
 10
202.7422260098
 20
169.5792751974
 30
0.0
 11
202.9922260098
 21
169.1462624955
 31
0.0
  0
LINE
  5
115
100
AcDbEntity
  8
0
  6
CONTINUOUS
 62
         7
100
AcDbLine
 10
202.9922260098
 20
170.0122878993
 30
0.0
 11
202.7422260098
 21
169.5792751974
 31
0.0
  0
LINE
  5
116
100
AcDbEntity
  8
0
  6
CONTINUOUS
 62
         7
100
AcDbLine
 10
203.7422260098
 20
170.4453006012
 30
0.0
 11
202.9922260098
 21
170.0122878993
 31
0.0
  0
LINE
  5
117
100
AcDbEntity
  8
0
  6
CONTINUOUS
 62
         7
100
AcDbLine
 10
205.2422260098
 20
170.4453006012
 30
0.0
 11
203.7422260098
 21
170.4453006012
 31
0.0
  0
LINE
  5
118
100
AcDbEntity
  8
0
  6
CONTINUOUS
 62
         7
100
AcDbLine
 10
207.4922260098
 20
169.1462624955
 30
0.0
 11
205.2422260098
 21
170.4453006012
 31
0.0
  0
LINE
  5
119
100
AcDbEntity
  8
0
  6
CONTINUOUS
 62
         7
100
AcDbLine
 10
209.7422260098
 20
165.2491481785
 30
0.0
 11
207.4922260098
 21
169.1462624955
 31
0.0
  0
LINE
  5
11A
100
AcDbEntity
  8
0
  6
CONTINUOUS
 62
         7
100
AcDbLine
 10
209.7422260098
 20
157.4549195444
 30
0.0
 11
209.7422260098
 21
165.2491481785
 31
0.0
  0
LINE
  5
11B
100
AcDbEntity
  8
0
  6
CONTINUOUS
 62
         7
100
AcDbLine
 10
209.7422260098
 20
157.4549195444
 30
0.0
 11
202.9922260098
 21
145.7635765934
 31
0.0
  0
LINE
  5
11C
100
AcDbEntity
  8
0
  6
CONTINUOUS
 62
         7
100
AcDbLine
 10
202.9922260098
 20
145.7635765934
 30
0.0
 11
196.2422260098
 21
141.8664622763
 31
0.0
  0
LINE
  5
11D
100
AcDbEntity
  8
0
  6
CONTINUOUS
 62
         7
100
AcDbLine
 10
196.2422260098
 20
141.8664622763
 30
0.0
 11
191.7422260098
 21
141.8664622763
 31
0.0
  0
LINE
  5
11E
100
AcDbEntity
  8
0
  6
CONTINUOUS
 62
         7
100
AcDbLine
 10
191.7422260098
 20
141.8664622763
 30
0.0
 11
189.4922260098
 21
143.165500382
 31
0.0
  0
LINE
  5
11F
100
AcDbEntity
  8
0
  6
CONTINUOUS
 62
         7
100
AcDbLine
 10
189.4922260098
 20
143.165500382
 30
0.0
 11
188.7422260098
 21
144.4645384877
 31
0.0
  0
LINE
  5
120
100
AcDbEntity
  8
0
  6
CONTINUOUS
 62
         7
100
AcDbLine
 10
188.7422260098
 20
144.4645384877
 30
0.0
 11
188.7422260098
 21
145.3305638915
 31
0.0
  0
LINE
  5
121
100
AcDbEntity
  8
0
  6
CONTINUOUS
 62
         7
100
AcDbLine
 10
188.7422260098
 20
145.3305638915
 30
0.0
 11
188.9922260098
 21
145.7635765934
 31
0.0
  0
LINE
  5
122
100
AcDbEntity
  8
0
  6
CONTINUOUS
 62
         7
100
AcDbLine
 10
188.9922260098
 20
145.7635765934
 30
0.0
 11
189.4922260098
 21
145.7635765934
 31
0.0
  0
LINE
  5
123
100
AcDbEntity
  8
0
  6
CONTINUOUS
 62
         7
100
AcDbLine
 10
189.4922260098
 20
145.7635765934
 30
0.0
 11
189.2422260098
 21
145.3305638915
 31
0.0
  0
LINE
  5
124
100
AcDbEntity
  8
0
  6
CONTINUOUS
 62
         7
100
AcDbLine
 10
189.2422260098
 20
145.3305638915
 30
0.0
 11
189.4922260098
 21
144.8975511896
 31
0.0
  0
LINE
  5
125
100
AcDbEntity
  8
0
  6
CONTINUOUS
 62
         7
100
AcDbLine
 10
189.4922260098
 20
144.8975511896
 30
0.0
 11
190.2422260098
 21
144.4645384877
 31
0.0
  0
LINE
  5
126
100
AcDbEntity
  8
0
  6
CONTINUOUS
 62
         7
100
AcDbLine
 10
190.2422260098
 20
144.4645384877
 30
0.0
 11
191.7422260098
 21
144.4645384877
 31
0.0
  0
LINE
  5
127
100
AcDbEntity
  8
0
  6
CONTINUOUS
 62
         7
100
AcDbLine
 10
191.7422260098
 20
144.4645384877
 30
0.0
 11
193.9922260098
 21
145.7635765934
 31
0.0
  0
LINE
  5
128
100
AcDbEntity
  8
0
  6
CONTINUOUS
 62
         7
100
AcDbLine
 10
193.9922260098
 20
145.7635765934
 30
0.0
 11
196.2422260098
 21
149.6606909104
 31
0.0
  0
LINE
  5
129
100
AcDbEntity
  8
0
  6
CONTINUOUS
 62
         7
100
AcDbLine
 10
196.2422260098
 20
149.6606909104
 30
0.0
 11
196.2422260098
 21
157.4549195444
 31
0.0
  0
LINE
  5
12A
100
AcDbEntity
  8
0
  6
CONTINUOUS
 62
         7
100
AcDbLine
 10
202.9922260098
 20
161.3520338615
 30
0.0
 11
196.2422260098
 21
157.4549195444
 31
0.0
  0
LINE
  5
12B
100
AcDbEntity
  8
0
  6
CONTINUOUS
 62
         7
100
AcDbLine
 10
175.9922260098
 20
145.7635765934
 30
0.0
 11
162.4922260098
 21
145.7635765934
 31
0.0
  0
LINE
  5
12C
100
AcDbEntity
  8
0
  6
CONTINUOUS
 62
         7
100
AcDbLine
 10
175.9922260098
 20
145.7635765934
 30
0.0
 11
182.7422260098
 21
149.6606909104
 31
0.0
  0
LINE
  5
12D
100
AcDbEntity
  8
0
  6
CONTINUOUS
 62
         7
100
AcDbLine
 10
182.7422260098
 20
149.6606909104
 30
0.0
 11
187.2422260098
 21
149.6606909104
 31
0.0
  0
LINE
  5
12E
100
AcDbEntity
  8
0
  6
CONTINUOUS
 62
         7
100
AcDbLine
 10
187.2422260098
 20
149.6606909104
 30
0.0
 11
189.4922260098
 21
148.3616528047
 31
0.0
  0
LINE
  5
12F
100
AcDbEntity
  8
0
  6
CONTINUOUS
 62
         7
100
AcDbLine
 10
189.4922260098
 20
148.3616528047
 30
0.0
 11
190.2422260098
 21
147.062614699
 31
0.0
  0
LINE
  5
130
100
AcDbEntity
  8
0
  6
CONTINUOUS
 62
         7
100
AcDbLine
 10
190.2422260098
 20
147.062614699
 30
0.0
 11
190.2422260098
 21
146.1965892952
 31
0.0
  0
LINE
  5
131
100
AcDbEntity
  8
0
  6
CONTINUOUS
 62
         7
100
AcDbLine
 10
190.2422260098
 20
146.1965892952
 30
0.0
 11
189.9922260098
 21
145.7635765934
 31
0.0
  0
LINE
  5
132
100
AcDbEntity
  8
0
  6
CONTINUOUS
 62
         7
100
AcDbLine
 10
189.9922260098
 20
145.7635765934
 30
0.0
 11
189.4922260098
 21
145.7635765934
 31
0.0
  0
LINE
  5
133
100
AcDbEntity
  8
0
  6
CONTINUOUS
 62
         7
100
AcDbLine
 10
189.2422260098
 20
146.1965892952
 30
0.0
 11
189.4922260098
 21
145.7635765934
 31
0.0
  0
LINE
  5
134
100
AcDbEntity
  8
0
  6
CONTINUOUS
 62
         7
100
AcDbLine
 10
188.7422260098
 20
146.1965892952
 30
0.0
 11
189.2422260098
 21
146.1965892952
 31
0.0
  0
LINE
  5
135
100
AcDbEntity
  8
0
  6
CONTINUOUS
 62
         7
100
AcDbLine
 10
187.9922260098
 20
145.7635765934
 30
0.0
 11
188.7422260098
 21
146.1965892952
 31
0.0
  0
LINE
  5
136
100
AcDbEntity
  8
0
  6
CONTINUOUS
 62
         7
100
AcDbLine
 10
187.2422260098
 20
144.4645384877
 30
0.0
 11
187.9922260098
 21
145.7635765934
 31
0.0
  0
LINE
  5
137
100
AcDbEntity
  8
0
  6
CONTINUOUS
 62
         7
100
AcDbLine
 10
187.2422260098
 20
141.8664622763
 30
0.0
 11
187.2422260098
 21
144.4645384877
 31
0.0
  0
LINE
  5
138
100
AcDbEntity
  8
0
  6
CONTINUOUS
 62
         7
100
AcDbLine
 10
189.4922260098
 20
137.9693479593
 30
0.0
 11
187.2422260098
 21
141.8664622763
 31
0.0
  0
LINE
  5
139
100
AcDbEntity
  8
0
  6
CONTINUOUS
 62
         7
100
AcDbLine
 10
196.2422260098
 20
134.0722336423
 30
0.0
 11
189.4922260098
 21
137.9693479593
 31
0.0
  0
LINE
  5
13A
100
AcDbEntity
  8
0
  6
CONTINUOUS
 62
         7
100
AcDbLine
 10
196.2422260098
 20
134.0722336423
 30
0.0
 11
182.7422260098
 21
134.0722336423
 31
0.0
  0
LINE
  5
13B
100
AcDbEntity
  8
0
  6
CONTINUOUS
 62
         7
100
AcDbLine
 10
162.4922260098
 20
145.7635765934
 30
0.0
 11
182.7422260098
 21
134.0722336423
 31
0.0
  0
LINE
  5
13C
100
AcDbEntity
  8
0
  6
CONTINUOUS
 62
         7
100
AcDbLine
 10
209.7422260098
 20
165.2491481785
 30
0.0
 11
207.4922260098
 21
169.1462624955
 31
0.0
  0
LINE
  5
13D
100
AcDbEntity
  8
0
  6
CONTINUOUS
 62
         7
100
AcDbLine
 10
207.4922260098
 20
169.1462624955
 30
0.0
 11
205.2422260098
 21
170.4453006012
 31
0.0
  0
LINE
  5
13E
100
AcDbEntity
  8
0
  6
CONTINUOUS
 62
         7
100
AcDbLine
 10
205.2422260098
 20
170.4453006012
 30
0.0
 11
203.7422260098
 21
170.4453006012
 31
0.0
  0
LINE
  5
13F
100
AcDbEntity
  8
0
  6
CONTINUOUS
 62
         7
100
AcDbLine
 10
203.7422260098
 20
170.4453006012
 30
0.0
 11
202.9922260098
 21
170.0122878993
 31
0.0
  0
LINE
  5
140
100
AcDbEntity
  8
0
  6
CONTINUOUS
 62
         7
100
AcDbLine
 10
202.9922260098
 20
170.0122878993
 30
0.0
 11
202.7422260098
 21
169.5792751974
 31
0.0
  0
LINE
  5
141
100
AcDbEntity
  8
0
  6
CONTINUOUS
 62
         7
100
AcDbLine
 10
202.7422260098
 20
169.5792751974
 30
0.0
 11
202.9922260098
 21
169.1462624955
 31
0.0
  0
LINE
  5
142
100
AcDbEntity
  8
0
  6
CONTINUOUS
 62
         7
100
AcDbLine
 10
202.7422260098
 20
168.7132497936
 30
0.0
 11
202.9922260098
 21
169.1462624955
 31
0.0
  0
LINE
  5
143
100
AcDbEntity
  8
0
  6
CONTINUOUS
 62
         7
100
AcDbLine
 10
202.2422260098
 20
168.7132497936
 30
0.0
 11
202.7422260098
 21
168.7132497936
 31
0.0
  0
LINE
  5
144
100
AcDbEntity
  8
0
  6
CONTINUOUS
 62
         7
100
AcDbLine
 10
201.4922260098
 20
169.1462624955
 30
0.0
 11
202.2422260098
 21
168.7132497936
 31
0.0
  0
LINE
  5
145
100
AcDbEntity
  8
0
  6
CONTINUOUS
 62
         7
100
AcDbLine
 10
200.7422260098
 20
170.4453006012
 30
0.0
 11
201.4922260098
 21
169.1462624955
 31
0.0
  0
LINE
  5
146
100
AcDbEntity
  8
0
  6
CONTINUOUS
 62
         7
100
AcDbLine
 10
200.7422260098
 20
173.0433768126
 30
0.0
 11
200.7422260098
 21
170.4453006012
 31
0.0
  0
LINE
  5
147
100
AcDbEntity
  8
0
  6
CONTINUOUS
 62
         7
100
AcDbLine
 10
202.9922260098
 20
176.9404911296
 30
0.0
 11
200.7422260098
 21
173.0433768126
 31
0.0
  0
LINE
  5
148
100
AcDbEntity
  8
0
  6
CONTINUOUS
 62
         7
100
AcDbLine
 10
209.7422260098
 20
180.8376054466
 30
0.0
 11
202.9922260098
 21
176.9404911296
 31
0.0
  0
LINE
  5
149
100
AcDbEntity
  8
0
  6
CONTINUOUS
 62
         7
100
AcDbLine
 10
229.9922260098
 20
169.1462624955
 30
0.0
 11
209.7422260098
 21
157.4549195444
 31
0.0
  0
LINE
  5
14A
100
AcDbEntity
  8
0
  6
CONTINUOUS
 62
         7
100
AcDbLine
 10
209.7422260098
 20
157.4549195444
 30
0.0
 11
209.7422260098
 21
165.2491481785
 31
0.0
  0
LINE
  5
14B
100
AcDbEntity
  8
0
  6
CONTINUOUS
 62
         7
100
AcDbLine
 10
216.4922260098
 20
169.1462624955
 30
0.0
 11
209.7422260098
 21
180.8376054466
 31
0.0
  0
LINE
  5
14C
100
AcDbEntity
  8
0
  6
CONTINUOUS
 62
         7
100
AcDbLine
 10
216.4922260098
 20
169.1462624955
 30
0.0
 11
229.9922260098
 21
169.1462624955
 31
0.0
  0
LINE
  5
14D
100
AcDbEntity
  8
0
  6
CONTINUOUS
 62
         7
100
AcDbLine
 10
196.2422260098
 20
110.6895477401
 30
0.0
 11
182.7422260098
 21
110.6895477401
 31
0.0
  0
LINE
  5
14E
100
AcDbEntity
  8
0
  6
CONTINUOUS
 62
         7
100
AcDbLine
 10
189.4922260098
 20
122.3808906912
 30
0.0
 11
182.7422260098
 21
110.6895477401
 31
0.0
  0
LINE
  5
14F
100
AcDbEntity
  8
0
  6
CONTINUOUS
 62
         7
100
AcDbLine
 10
175.9922260098
 20
122.3808906912
 30
0.0
 11
189.4922260098
 21
122.3808906912
 31
0.0
  0
LINE
  5
150
100
AcDbEntity
  8
0
  6
CONTINUOUS
 62
         7
100
AcDbLine
 10
196.2422260098
 20
134.0722336423
 30
0.0
 11
175.9922260098
 21
122.3808906912
 31
0.0
  0
LINE
  5
151
100
AcDbEntity
  8
0
  6
CONTINUOUS
 62
         7
100
AcDbLine
 10
196.2422260098
 20
110.6895477401
 30
0.0
 11
196.2422260098
 21
134.0722336423
 31
0.0
  0
LINE
  5
152
100
AcDbEntity
  8
0
  6
CONTINUOUS
 62
         7
100
AcDbLine
 10
182.7422260098
 20
134.0722336423
 30
0.0
 11
169.2422260098
 21
134.0722336423
 31
0.0
  0
LINE
  5
153
100
AcDbEntity
  8
0
  6
CONTINUOUS
 62
         7
100
AcDbLine
 10
169.2422260098
 20
134.0722336423
 30
0.0
 11
169.2422260098
 21
126.2780050082
 31
0.0
  0
LINE
  5
154
100
AcDbEntity
  8
0
  6
CONTINUOUS
 62
         7
100
AcDbLine
 10
169.2422260098
 20
126.2780050082
 30
0.0
 11
166.9922260098
 21
122.3808906912
 31
0.0
  0
LINE
  5
155
100
AcDbEntity
  8
0
  6
CONTINUOUS
 62
         7
100
AcDbLine
 10
166.9922260098
 20
122.3808906912
 30
0.0
 11
164.7422260098
 21
121.0818525855
 31
0.0
  0
LINE
  5
156
100
AcDbEntity
  8
0
  6
CONTINUOUS
 62
         7
100
AcDbLine
 10
164.7422260098
 20
121.0818525855
 30
0.0
 11
163.2422260098
 21
121.0818525855
 31
0.0
  0
LINE
  5
157
100
AcDbEntity
  8
0
  6
CONTINUOUS
 62
         7
100
AcDbLine
 10
163.2422260098
 20
121.0818525855
 30
0.0
 11
162.4922260098
 21
121.5148652874
 31
0.0
  0
LINE
  5
158
100
AcDbEntity
  8
0
  6
CONTINUOUS
 62
         7
100
AcDbLine
 10
162.4922260098
 20
121.5148652874
 30
0.0
 11
162.2422260098
 21
121.9478779893
 31
0.0
  0
LINE
  5
159
100
AcDbEntity
  8
0
  6
CONTINUOUS
 62
         7
100
AcDbLine
 10
162.2422260098
 20
121.9478779893
 30
0.0
 11
162.4922260098
 21
122.3808906912
 31
0.0
  0
LINE
  5
15A
100
AcDbEntity
  8
0
  6
CONTINUOUS
 62
         7
100
AcDbLine
 10
162.4922260098
 20
122.3808906912
 30
0.0
 11
162.7422260098
 21
121.9478779893
 31
0.0
  0
LINE
  5
15B
100
AcDbEntity
  8
0
  6
CONTINUOUS
 62
         7
100
AcDbLine
 10
162.7422260098
 20
121.9478779893
 30
0.0
 11
163.2422260098
 21
121.9478779893
 31
0.0
  0
LINE
  5
15C
100
AcDbEntity
  8
0
  6
CONTINUOUS
 62
         7
100
AcDbLine
 10
163.2422260098
 20
121.9478779893
 30
0.0
 11
163.9922260098
 21
122.3808906912
 31
0.0
  0
LINE
  5
15D
100
AcDbEntity
  8
0
  6
CONTINUOUS
 62
         7
100
AcDbLine
 10
163.9922260098
 20
122.3808906912
 30
0.0
 11
164.7422260098
 21
123.6799287969
 31
0.0
  0
LINE
  5
15E
100
AcDbEntity
  8
0
  6
CONTINUOUS
 62
         7
100
AcDbLine
 10
164.7422260098
 20
123.6799287969
 30
0.0
 11
164.7422260098
 21
126.2780050082
 31
0.0
  0
LINE
  5
15F
100
AcDbEntity
  8
0
  6
CONTINUOUS
 62
         7
100
AcDbLine
 10
164.7422260098
 20
126.2780050082
 30
0.0
 11
162.4922260098
 21
130.1751193252
 31
0.0
  0
LINE
  5
160
100
AcDbEntity
  8
0
  6
CONTINUOUS
 62
         7
100
AcDbLine
 10
162.4922260098
 20
130.1751193252
 30
0.0
 11
155.7422260098
 21
134.0722336423
 31
0.0
  0
LINE
  5
161
100
AcDbEntity
  8
0
  6
CONTINUOUS
 62
         7
100
AcDbLine
 10
162.4922260098
 20
145.7635765934
 30
0.0
 11
155.7422260098
 21
134.0722336423
 31
0.0
  0
LINE
  5
162
100
AcDbEntity
  8
0
  6
CONTINUOUS
 62
         7
100
AcDbLine
 10
182.7422260098
 20
134.0722336423
 30
0.0
 11
162.4922260098
 21
145.7635765934
 31
0.0
  0
LINE
  5
163
100
AcDbEntity
  8
0
  6
CONTINUOUS
 62
         7
100
AcDbLine
 10
155.7422260098
 20
134.0722336423
 30
0.0
 11
142.2422260098
 21
134.0722336423
 31
0.0
  0
LINE
  5
164
100
AcDbEntity
  8
0
  6
CONTINUOUS
 62
         7
100
AcDbLine
 10
155.7422260098
 20
134.0722336423
 30
0.0
 11
162.4922260098
 21
130.1751193252
 31
0.0
  0
LINE
  5
165
100
AcDbEntity
  8
0
  6
CONTINUOUS
 62
         7
100
AcDbLine
 10
162.4922260098
 20
130.1751193252
 30
0.0
 11
164.7422260098
 21
126.2780050082
 31
0.0
  0
LINE
  5
166
100
AcDbEntity
  8
0
  6
CONTINUOUS
 62
         7
100
AcDbLine
 10
164.7422260098
 20
126.2780050082
 30
0.0
 11
164.7422260098
 21
123.6799287969
 31
0.0
  0
LINE
  5
167
100
AcDbEntity
  8
0
  6
CONTINUOUS
 62
         7
100
AcDbLine
 10
164.7422260098
 20
123.6799287969
 30
0.0
 11
163.9922260098
 21
122.3808906912
 31
0.0
  0
LINE
  5
168
100
AcDbEntity
  8
0
  6
CONTINUOUS
 62
         7
100
AcDbLine
 10
163.9922260098
 20
122.3808906912
 30
0.0
 11
163.2422260098
 21
121.9478779893
 31
0.0
  0
LINE
  5
169
100
AcDbEntity
  8
0
  6
CONTINUOUS
 62
         7
100
AcDbLine
 10
163.2422260098
 20
121.9478779893
 30
0.0
 11
162.7422260098
 21
121.9478779893
 31
0.0
  0
LINE
  5
16A
100
AcDbEntity
  8
0
  6
CONTINUOUS
 62
         7
100
AcDbLine
 10
162.7422260098
 20
121.9478779893
 30
0.0
 11
162.4922260098
 21
122.3808906912
 31
0.0
  0
LINE
  5
16B
100
AcDbEntity
  8
0
  6
CONTINUOUS
 62
         7
100
AcDbLine
 10
162.4922260098
 20
122.3808906912
 30
0.0
 11
162.9922260098
 21
122.3808906912
 31
0.0
  0
LINE
  5
16C
100
AcDbEntity
  8
0
  6
CONTINUOUS
 62
         7
100
AcDbLine
 10
162.9922260098
 20
122.3808906912
 30
0.0
 11
163.2422260098
 21
122.8139033931
 31
0.0
  0
LINE
  5
16D
100
AcDbEntity
  8
0
  6
CONTINUOUS
 62
         7
100
AcDbLine
 10
163.2422260098
 20
122.8139033931
 30
0.0
 11
163.2422260098
 21
123.6799287969
 31
0.0
  0
LINE
  5
16E
100
AcDbEntity
  8
0
  6
CONTINUOUS
 62
         7
100
AcDbLine
 10
163.2422260098
 20
123.6799287969
 30
0.0
 11
162.4922260098
 21
124.9789669025
 31
0.0
  0
LINE
  5
16F
100
AcDbEntity
  8
0
  6
CONTINUOUS
 62
         7
100
AcDbLine
 10
162.4922260098
 20
124.9789669025
 30
0.0
 11
160.2422260098
 21
126.2780050082
 31
0.0
  0
LINE
  5
170
100
AcDbEntity
  8
0
  6
CONTINUOUS
 62
         7
100
AcDbLine
 10
160.2422260098
 20
126.2780050082
 30
0.0
 11
155.7422260098
 21
126.2780050082
 31
0.0
  0
LINE
  5
171
100
AcDbEntity
  8
0
  6
CONTINUOUS
 62
         7
100
AcDbLine
 10
155.7422260098
 20
126.2780050082
 30
0.0
 11
148.9922260098
 21
122.3808906912
 31
0.0
  0
LINE
  5
172
100
AcDbEntity
  8
0
  6
CONTINUOUS
 62
         7
100
AcDbLine
 10
142.2422260098
 20
110.6895477401
 30
0.0
 11
148.9922260098
 21
122.3808906912
 31
0.0
  0
LINE
  5
173
100
AcDbEntity
  8
0
  6
CONTINUOUS
 62
         7
100
AcDbLine
 10
142.2422260098
 20
134.0722336423
 30
0.0
 11
142.2422260098
 21
110.6895477401
 31
0.0
  0
LINE
  5
174
100
AcDbEntity
  8
0
  6
CONTINUOUS
 62
         7
100
AcDbLine
 10
189.4922260098
 20
122.3808906912
 30
0.0
 11
182.7422260098
 21
110.6895477401
 31
0.0
  0
LINE
  5
175
100
AcDbEntity
  8
0
  6
CONTINUOUS
 62
         7
100
AcDbLine
 10
169.2422260098
 20
110.6895477401
 30
0.0
 11
182.7422260098
 21
110.6895477401
 31
0.0
  0
LINE
  5
176
100
AcDbEntity
  8
0
  6
CONTINUOUS
 62
         7
100
AcDbLine
 10
169.2422260098
 20
110.6895477401
 30
0.0
 11
162.4922260098
 21
114.5866620571
 31
0.0
  0
LINE
  5
177
100
AcDbEntity
  8
0
  6
CONTINUOUS
 62
         7
100
AcDbLine
 10
162.4922260098
 20
114.5866620571
 30
0.0
 11
160.2422260098
 21
118.4837763741
 31
0.0
  0
LINE
  5
178
100
AcDbEntity
  8
0
  6
CONTINUOUS
 62
         7
100
AcDbLine
 10
160.2422260098
 20
118.4837763741
 30
0.0
 11
160.2422260098
 21
121.0818525855
 31
0.0
  0
LINE
  5
179
100
AcDbEntity
  8
0
  6
CONTINUOUS
 62
         7
100
AcDbLine
 10
160.2422260098
 20
121.0818525855
 30
0.0
 11
160.9922260098
 21
122.3808906912
 31
0.0
  0
LINE
  5
17A
100
AcDbEntity
  8
0
  6
CONTINUOUS
 62
         7
100
AcDbLine
 10
160.9922260098
 20
122.3808906912
 30
0.0
 11
161.7422260098
 21
122.8139033931
 31
0.0
  0
LINE
  5
17B
100
AcDbEntity
  8
0
  6
CONTINUOUS
 62
         7
100
AcDbLine
 10
161.7422260098
 20
122.8139033931
 30
0.0
 11
162.2422260098
 21
122.8139033931
 31
0.0
  0
LINE
  5
17C
100
AcDbEntity
  8
0
  6
CONTINUOUS
 62
         7
100
AcDbLine
 10
162.2422260098
 20
122.8139033931
 30
0.0
 11
162.4922260098
 21
122.3808906912
 31
0.0
  0
LINE
  5
17D
100
AcDbEntity
  8
0
  6
CONTINUOUS
 62
         7
100
AcDbLine
 10
162.4922260098
 20
122.3808906912
 30
0.0
 11
161.9922260098
 21
122.3808906912
 31
0.0
  0
LINE
  5
17E
100
AcDbEntity
  8
0
  6
CONTINUOUS
 62
         7
100
AcDbLine
 10
161.9922260098
 20
122.3808906912
 30
0.0
 11
161.7422260098
 21
121.9478779893
 31
0.0
  0
LINE
  5
17F
100
AcDbEntity
  8
0
  6
CONTINUOUS
 62
         7
100
AcDbLine
 10
161.7422260098
 20
121.9478779893
 30
0.0
 11
161.7422260098
 21
121.0818525855
 31
0.0
  0
LINE
  5
180
100
AcDbEntity
  8
0
  6
CONTINUOUS
 62
         7
100
AcDbLine
 10
161.7422260098
 20
121.0818525855
 30
0.0
 11
162.4922260098
 21
119.7828144798
 31
0.0
  0
LINE
  5
181
100
AcDbEntity
  8
0
  6
CONTINUOUS
 62
         7
100
AcDbLine
 10
162.4922260098
 20
119.7828144798
 30
0.0
 11
164.7422260098
 21
118.4837763741
 31
0.0
  0
LINE
  5
182
100
AcDbEntity
  8
0
  6
CONTINUOUS
 62
         7
100
AcDbLine
 10
164.7422260098
 20
118.4837763741
 30
0.0
 11
169.2422260098
 21
118.4837763741
 31
0.0
  0
LINE
  5
183
100
AcDbEntity
  8
0
  6
CONTINUOUS
 62
         7
100
AcDbLine
 10
169.2422260098
 20
118.4837763741
 30
0.0
 11
175.9922260098
 21
122.3808906912
 31
0.0
  0
LINE
  5
184
100
AcDbEntity
  8
0
  6
CONTINUOUS
 62
         7
100
AcDbLine
 10
189.4922260098
 20
122.3808906912
 30
0.0
 11
175.9922260098
 21
122.3808906912
 31
0.0
  0
LINE
  5
185
100
AcDbEntity
  8
0
  6
CONTINUOUS
 62
         7
100
AcDbLine
 10
169.2422260098
 20
118.4837763741
 30
0.0
 11
164.7422260098
 21
118.4837763741
 31
0.0
  0
LINE
  5
186
100
AcDbEntity
  8
0
  6
CONTINUOUS
 62
         7
100
AcDbLine
 10
164.7422260098
 20
118.4837763741
 30
0.0
 11
162.4922260098
 21
119.7828144798
 31
0.0
  0
LINE
  5
187
100
AcDbEntity
  8
0
  6
CONTINUOUS
 62
         7
100
AcDbLine
 10
162.4922260098
 20
119.7828144798
 30
0.0
 11
161.7422260098
 21
121.0818525855
 31
0.0
  0
LINE
  5
188
100
AcDbEntity
  8
0
  6
CONTINUOUS
 62
         7
100
AcDbLine
 10
161.7422260098
 20
121.0818525855
 30
0.0
 11
161.7422260098
 21
121.9478779893
 31
0.0
  0
LINE
  5
189
100
AcDbEntity
  8
0
  6
CONTINUOUS
 62
         7
100
AcDbLine
 10
161.7422260098
 20
121.9478779893
 30
0.0
 11
161.9922260098
 21
122.3808906912
 31
0.0
  0
LINE
  5
18A
100
AcDbEntity
  8
0
  6
CONTINUOUS
 62
         7
100
AcDbLine
 10
161.9922260098
 20
122.3808906912
 30
0.0
 11
162.4922260098
 21
122.3808906912
 31
0.0
  0
LINE
  5
18B
100
AcDbEntity
  8
0
  6
CONTINUOUS
 62
         7
100
AcDbLine
 10
162.4922260098
 20
122.3808906912
 30
0.0
 11
162.2422260098
 21
121.9478779893
 31
0.0
  0
LINE
  5
18C
100
AcDbEntity
  8
0
  6
CONTINUOUS
 62
         7
100
AcDbLine
 10
162.2422260098
 20
121.9478779893
 30
0.0
 11
162.4922260098
 21
121.5148652874
 31
0.0
  0
LINE
  5
18D
100
AcDbEntity
  8
0
  6
CONTINUOUS
 62
         7
100
AcDbLine
 10
162.4922260098
 20
121.5148652874
 30
0.0
 11
163.2422260098
 21
121.0818525855
 31
0.0
  0
LINE
  5
18E
100
AcDbEntity
  8
0
  6
CONTINUOUS
 62
         7
100
AcDbLine
 10
163.2422260098
 20
121.0818525855
 30
0.0
 11
164.7422260098
 21
121.0818525855
 31
0.0
  0
LINE
  5
18F
100
AcDbEntity
  8
0
  6
CONTINUOUS
 62
         7
100
AcDbLine
 10
164.7422260098
 20
121.0818525855
 30
0.0
 11
166.9922260098
 21
122.3808906912
 31
0.0
  0
LINE
  5
190
100
AcDbEntity
  8
0
  6
CONTINUOUS
 62
         7
100
AcDbLine
 10
166.9922260098
 20
122.3808906912
 30
0.0
 11
169.2422260098
 21
126.2780050082
 31
0.0
  0
LINE
  5
191
100
AcDbEntity
  8
0
  6
CONTINUOUS
 62
         7
100
AcDbLine
 10
169.2422260098
 20
126.2780050082
 30
0.0
 11
169.2422260098
 21
134.0722336423
 31
0.0
  0
LINE
  5
192
100
AcDbEntity
  8
0
  6
CONTINUOUS
 62
         7
100
AcDbLine
 10
196.2422260098
 20
134.0722336423
 30
0.0
 11
169.2422260098
 21
134.0722336423
 31
0.0
  0
LINE
  5
193
100
AcDbEntity
  8
0
  6
CONTINUOUS
 62
         7
100
AcDbLine
 10
196.2422260098
 20
134.0722336423
 30
0.0
 11
169.2422260098
 21
118.4837763741
 31
0.0
  0
LINE
  5
194
100
AcDbEntity
  8
0
  6
CONTINUOUS
 62
         7
100
AcDbLine
 10
200.7422260098
 20
173.0433768126
 30
0.0
 11
202.9922260098
 21
176.9404911296
 31
0.0
  0
LINE
  5
195
100
AcDbEntity
  8
0
  6
CONTINUOUS
 62
         7
100
AcDbLine
 10
200.7422260098
 20
170.4453006012
 30
0.0
 11
200.7422260098
 21
173.0433768126
 31
0.0
  0
LINE
  5
196
100
AcDbEntity
  8
0
  6
CONTINUOUS
 62
         7
100
AcDbLine
 10
201.4922260098
 20
169.1462624955
 30
0.0
 11
200.7422260098
 21
170.4453006012
 31
0.0
  0
LINE
  5
197
100
AcDbEntity
  8
0
  6
CONTINUOUS
 62
         7
100
AcDbLine
 10
202.2422260098
 20
168.7132497936
 30
0.0
 11
201.4922260098
 21
169.1462624955
 31
0.0
  0
LINE
  5
198
100
AcDbEntity
  8
0
  6
CONTINUOUS
 62
         7
100
AcDbLine
 10
202.7422260098
 20
168.7132497936
 30
0.0
 11
202.2422260098
 21
168.7132497936
 31
0.0
  0
LINE
  5
199
100
AcDbEntity
  8
0
  6
CONTINUOUS
 62
         7
100
AcDbLine
 10
202.9922260098
 20
169.1462624955
 30
0.0
 11
202.7422260098
 21
168.7132497936
 31
0.0
  0
LINE
  5
19A
100
AcDbEntity
  8
0
  6
CONTINUOUS
 62
         7
100
AcDbLine
 10
203.2422260098
 20
168.7132497936
 30
0.0
 11
202.9922260098
 21
169.1462624955
 31
0.0
  0
LINE
  5
19B
100
AcDbEntity
  8
0
  6
CONTINUOUS
 62
         7
100
AcDbLine
 10
202.9922260098
 20
168.2802370918
 30
0.0
 11
203.2422260098
 21
168.7132497936
 31
0.0
  0
LINE
  5
19C
100
AcDbEntity
  8
0
  6
CONTINUOUS
 62
         7
100
AcDbLine
 10
202.2422260098
 20
167.8472243899
 30
0.0
 11
202.9922260098
 21
168.2802370918
 31
0.0
  0
LINE
  5
19D
100
AcDbEntity
  8
0
  6
CONTINUOUS
 62
         7
100
AcDbLine
 10
200.7422260098
 20
167.8472243899
 30
0.0
 11
202.2422260098
 21
167.8472243899
 31
0.0
  0
LINE
  5
19E
100
AcDbEntity
  8
0
  6
CONTINUOUS
 62
         7
100
AcDbLine
 10
198.4922260098
 20
169.1462624955
 30
0.0
 11
200.7422260098
 21
167.8472243899
 31
0.0
  0
LINE
  5
19F
100
AcDbEntity
  8
0
  6
CONTINUOUS
 62
         7
100
AcDbLine
 10
196.2422260098
 20
173.0433768126
 30
0.0
 11
198.4922260098
 21
169.1462624955
 31
0.0
  0
LINE
  5
1A0
100
AcDbEntity
  8
0
  6
CONTINUOUS
 62
         7
100
AcDbLine
 10
196.2422260098
 20
180.8376054466
 30
0.0
 11
196.2422260098
 21
173.0433768126
 31
0.0
  0
LINE
  5
1A1
100
AcDbEntity
  8
0
  6
CONTINUOUS
 62
         7
100
AcDbLine
 10
196.2422260098
 20
180.8376054466
 30
0.0
 11
189.4922260098
 21
192.5289483977
 31
0.0
  0
LINE
  5
1A2
100
AcDbEntity
  8
0
  6
CONTINUOUS
 62
         7
100
AcDbLine
 10
189.4922260098
 20
192.5289483977
 30
0.0
 11
196.2422260098
 21
196.4260627147
 31
0.0
  0
LINE
  5
1A3
100
AcDbEntity
  8
0
  6
CONTINUOUS
 62
         7
100
AcDbLine
 10
196.2422260098
 20
196.4260627147
 30
0.0
 11
200.7422260098
 21
196.4260627147
 31
0.0
  0
LINE
  5
1A4
100
AcDbEntity
  8
0
  6
CONTINUOUS
 62
         7
100
AcDbLine
 10
200.7422260098
 20
196.4260627147
 30
0.0
 11
202.9922260098
 21
195.1270246091
 31
0.0
  0
LINE
  5
1A5
100
AcDbEntity
  8
0
  6
CONTINUOUS
 62
         7
100
AcDbLine
 10
202.9922260098
 20
195.1270246091
 30
0.0
 11
203.7422260098
 21
193.8279865034
 31
0.0
  0
LINE
  5
1A6
100
AcDbEntity
  8
0
  6
CONTINUOUS
 62
         7
100
AcDbLine
 10
203.7422260098
 20
193.8279865034
 30
0.0
 11
203.7422260098
 21
192.9619610996
 31
0.0
  0
LINE
  5
1A7
100
AcDbEntity
  8
0
  6
CONTINUOUS
 62
         7
100
AcDbLine
 10
203.7422260098
 20
192.9619610996
 30
0.0
 11
203.4922260098
 21
192.5289483977
 31
0.0
  0
LINE
  5
1A8
100
AcDbEntity
  8
0
  6
CONTINUOUS
 62
         7
100
AcDbLine
 10
203.4922260098
 20
192.5289483977
 30
0.0
 11
202.9922260098
 21
192.5289483977
 31
0.0
  0
LINE
  5
1A9
100
AcDbEntity
  8
0
  6
CONTINUOUS
 62
         7
100
AcDbLine
 10
202.7422260098
 20
192.9619610996
 30
0.0
 11
202.9922260098
 21
192.5289483977
 31
0.0
  0
LINE
  5
1AA
100
AcDbEntity
  8
0
  6
CONTINUOUS
 62
         7
100
AcDbLine
 10
202.2422260098
 20
192.9619610996
 30
0.0
 11
202.7422260098
 21
192.9619610996
 31
0.0
  0
LINE
  5
1AB
100
AcDbEntity
  8
0
  6
CONTINUOUS
 62
         7
100
AcDbLine
 10
201.4922260098
 20
192.5289483977
 30
0.0
 11
202.2422260098
 21
192.9619610996
 31
0.0
  0
LINE
  5
1AC
100
AcDbEntity
  8
0
  6
CONTINUOUS
 62
         7
100
AcDbLine
 10
200.7422260098
 20
191.229910292
 30
0.0
 11
201.4922260098
 21
192.5289483977
 31
0.0
  0
LINE
  5
1AD
100
AcDbEntity
  8
0
  6
CONTINUOUS
 62
         7
100
AcDbLine
 10
200.7422260098
 20
188.6318340807
 30
0.0
 11
200.7422260098
 21
191.229910292
 31
0.0
  0
LINE
  5
1AE
100
AcDbEntity
  8
0
  6
CONTINUOUS
 62
         7
100
AcDbLine
 10
202.9922260098
 20
184.7347197637
 30
0.0
 11
200.7422260098
 21
188.6318340807
 31
0.0
  0
LINE
  5
1AF
100
AcDbEntity
  8
0
  6
CONTINUOUS
 62
         7
100
AcDbLine
 10
209.7422260098
 20
180.8376054466
 30
0.0
 11
202.9922260098
 21
184.7347197637
 31
0.0
  0
LINE
  5
1B0
100
AcDbEntity
  8
0
  6
CONTINUOUS
 62
         7
100
AcDbLine
 10
202.9922260098
 20
176.9404911296
 30
0.0
 11
209.7422260098
 21
180.8376054466
 31
0.0
  0
LINE
  5
1B1
100
AcDbEntity
  8
0
  6
CONTINUOUS
 62
         7
100
AcDbLine
 10
211.9922260098
 20
132.7731955366
 30
0.0
 11
214.2422260098
 21
134.0722336423
 31
0.0
  0
LINE
  5
1B2
100
AcDbEntity
  8
0
  6
CONTINUOUS
 62
         7
100
AcDbLine
 10
210.4922260098
 20
132.7731955366
 30
0.0
 11
211.9922260098
 21
132.7731955366
 31
0.0
  0
LINE
  5
1B3
100
AcDbEntity
  8
0
  6
CONTINUOUS
 62
         7
100
AcDbLine
 10
209.7422260098
 20
133.2062082385
 30
0.0
 11
210.4922260098
 21
132.7731955366
 31
0.0
  0
LINE
  5
1B4
100
AcDbEntity
  8
0
  6
CONTINUOUS
 62
         7
100
AcDbLine
 10
209.4922260098
 20
133.6392209404
 30
0.0
 11
209.7422260098
 21
133.2062082385
 31
0.0
  0
LINE
  5
1B5
100
AcDbEntity
  8
0
  6
CONTINUOUS
 62
         7
100
AcDbLine
 10
209.7422260098
 20
134.0722336423
 30
0.0
 11
209.4922260098
 21
133.6392209404
 31
0.0
  0
LINE
  5
1B6
100
AcDbEntity
  8
0
  6
CONTINUOUS
 62
         7
100
AcDbLine
 10
209.9922260098
 20
133.6392209404
 30
0.0
 11
209.7422260098
 21
134.0722336423
 31
0.0
  0
LINE
  5
1B7
100
AcDbEntity
  8
0
  6
CONTINUOUS
 62
         7
100
AcDbLine
 10
210.4922260098
 20
133.6392209404
 30
0.0
 11
209.9922260098
 21
133.6392209404
 31
0.0
  0
LINE
  5
1B8
100
AcDbEntity
  8
0
  6
CONTINUOUS
 62
         7
100
AcDbLine
 10
211.2422260098
 20
134.0722336423
 30
0.0
 11
210.4922260098
 21
133.6392209404
 31
0.0
  0
LINE
  5
1B9
100
AcDbEntity
  8
0
  6
CONTINUOUS
 62
         7
100
AcDbLine
 10
211.9922260098
 20
135.3712717479
 30
0.0
 11
211.2422260098
 21
134.0722336423
 31
0.0
  0
LINE
  5
1BA
100
AcDbEntity
  8
0
  6
CONTINUOUS
 62
         7
100
AcDbLine
 10
211.9922260098
 20
137.9693479593
 30
0.0
 11
211.9922260098
 21
135.3712717479
 31
0.0
  0
LINE
  5
1BB
100
AcDbEntity
  8
0
  6
CONTINUOUS
 62
         7
100
AcDbLine
 10
209.7422260098
 20
141.8664622763
 30
0.0
 11
211.9922260098
 21
137.9693479593
 31
0.0
  0
LINE
  5
1BC
100
AcDbEntity
  8
0
  6
CONTINUOUS
 62
         7
100
AcDbLine
 10
202.9922260098
 20
145.7635765934
 30
0.0
 11
209.7422260098
 21
141.8664622763
 31
0.0
  0
LINE
  5
1BD
100
AcDbEntity
  8
0
  6
CONTINUOUS
 62
         7
100
AcDbLine
 10
223.2422260098
 20
157.4549195444
 30
0.0
 11
202.9922260098
 21
145.7635765934
 31
0.0
  0
LINE
  5
1BE
100
AcDbEntity
  8
0
  6
CONTINUOUS
 62
         7
100
AcDbLine
 10
223.2422260098
 20
157.4549195444
 30
0.0
 11
229.9922260098
 21
153.5578052274
 31
0.0
  0
LINE
  5
1BF
100
AcDbEntity
  8
0
  6
CONTINUOUS
 62
         7
100
AcDbLine
 10
229.9922260098
 20
153.5578052274
 30
0.0
 11
232.2422260098
 21
149.6606909104
 31
0.0
  0
LINE
  5
1C0
100
AcDbEntity
  8
0
  6
CONTINUOUS
 62
         7
100
AcDbLine
 10
232.2422260098
 20
149.6606909104
 30
0.0
 11
232.2422260098
 21
147.062614699
 31
0.0
  0
LINE
  5
1C1
100
AcDbEntity
  8
0
  6
CONTINUOUS
 62
         7
100
AcDbLine
 10
232.2422260098
 20
147.062614699
 30
0.0
 11
231.4922260098
 21
145.7635765934
 31
0.0
  0
LINE
  5
1C2
100
AcDbEntity
  8
0
  6
CONTINUOUS
 62
         7
100
AcDbLine
 10
231.4922260098
 20
145.7635765934
 30
0.0
 11
230.7422260098
 21
145.3305638915
 31
0.0
  0
LINE
  5
1C3
100
AcDbEntity
  8
0
  6
CONTINUOUS
 62
         7
100
AcDbLine
 10
230.7422260098
 20
145.3305638915
 30
0.0
 11
230.2422260098
 21
145.3305638915
 31
0.0
  0
LINE
  5
1C4
100
AcDbEntity
  8
0
  6
CONTINUOUS
 62
         7
100
AcDbLine
 10
230.2422260098
 20
145.3305638915
 30
0.0
 11
229.9922260098
 21
145.7635765934
 31
0.0
  0
LINE
  5
1C5
100
AcDbEntity
  8
0
  6
CONTINUOUS
 62
         7
100
AcDbLine
 10
229.9922260098
 20
145.7635765934
 30
0.0
 11
230.4922260098
 21
145.7635765934
 31
0.0
  0
LINE
  5
1C6
100
AcDbEntity
  8
0
  6
CONTINUOUS
 62
         7
100
AcDbLine
 10
230.4922260098
 20
145.7635765934
 30
0.0
 11
230.7422260098
 21
146.1965892952
 31
0.0
  0
LINE
  5
1C7
100
AcDbEntity
  8
0
  6
CONTINUOUS
 62
         7
100
AcDbLine
 10
230.7422260098
 20
146.1965892952
 30
0.0
 11
230.7422260098
 21
147.062614699
 31
0.0
  0
LINE
  5
1C8
100
AcDbEntity
  8
0
  6
CONTINUOUS
 62
         7
100
AcDbLine
 10
230.7422260098
 20
147.062614699
 30
0.0
 11
229.9922260098
 21
148.3616528047
 31
0.0
  0
LINE
  5
1C9
100
AcDbEntity
  8
0
  6
CONTINUOUS
 62
         7
100
AcDbLine
 10
229.9922260098
 20
148.3616528047
 30
0.0
 11
227.7422260098
 21
149.6606909104
 31
0.0
  0
LINE
  5
1CA
100
AcDbEntity
  8
0
  6
CONTINUOUS
 62
         7
100
AcDbLine
 10
227.7422260098
 20
149.6606909104
 30
0.0
 11
223.2422260098
 21
149.6606909104
 31
0.0
  0
LINE
  5
1CB
100
AcDbEntity
  8
0
  6
CONTINUOUS
 62
         7
100
AcDbLine
 10
223.2422260098
 20
149.6606909104
 30
0.0
 11
216.4922260098
 21
145.7635765934
 31
0.0
  0
LINE
  5
1CC
100
AcDbEntity
  8
0
  6
CONTINUOUS
 62
         7
100
AcDbLine
 10
216.4922260098
 20
137.9693479593
 30
0.0
 11
216.4922260098
 21
145.7635765934
 31
0.0
  0
LINE
  5
1CD
100
AcDbEntity
  8
0
  6
CONTINUOUS
 62
         7
100
AcDbLine
 10
214.2422260098
 20
134.0722336423
 30
0.0
 11
216.4922260098
 21
137.9693479593
 31
0.0
  0
LINE
  5
1CE
100
AcDbEntity
  8
0
  6
CONTINUOUS
 62
         7
100
AcDbLine
 10
187.2422260098
 20
141.8664622763
 30
0.0
 11
189.4922260098
 21
137.9693479593
 31
0.0
  0
LINE
  5
1CF
100
AcDbEntity
  8
0
  6
CONTINUOUS
 62
         7
100
AcDbLine
 10
187.2422260098
 20
144.4645384877
 30
0.0
 11
187.2422260098
 21
141.8664622763
 31
0.0
  0
LINE
  5
1D0
100
AcDbEntity
  8
0
  6
CONTINUOUS
 62
         7
100
AcDbLine
 10
187.9922260098
 20
145.7635765934
 30
0.0
 11
187.2422260098
 21
144.4645384877
 31
0.0
  0
LINE
  5
1D1
100
AcDbEntity
  8
0
  6
CONTINUOUS
 62
         7
100
AcDbLine
 10
188.7422260098
 20
146.1965892952
 30
0.0
 11
187.9922260098
 21
145.7635765934
 31
0.0
  0
LINE
  5
1D2
100
AcDbEntity
  8
0
  6
CONTINUOUS
 62
         7
100
AcDbLine
 10
189.2422260098
 20
146.1965892952
 30
0.0
 11
188.7422260098
 21
146.1965892952
 31
0.0
  0
LINE
  5
1D3
100
AcDbEntity
  8
0
  6
CONTINUOUS
 62
         7
100
AcDbLine
 10
189.4922260098
 20
145.7635765934
 30
0.0
 11
189.2422260098
 21
146.1965892952
 31
0.0
  0
LINE
  5
1D4
100
AcDbEntity
  8
0
  6
CONTINUOUS
 62
         7
100
AcDbLine
 10
188.9922260098
 20
145.7635765934
 30
0.0
 11
189.4922260098
 21
145.7635765934
 31
0.0
  0
LINE
  5
1D5
100
AcDbEntity
  8
0
  6
CONTINUOUS
 62
         7
100
AcDbLine
 10
188.7422260098
 20
145.3305638915
 30
0.0
 11
188.9922260098
 21
145.7635765934
 31
0.0
  0
LINE
  5
1D6
100
AcDbEntity
  8
0
  6
CONTINUOUS
 62
         7
100
AcDbLine
 10
188.7422260098
 20
144.4645384877
 30
0.0
 11
188.7422260098
 21
145.3305638915
 31
0.0
  0
LINE
  5
1D7
100
AcDbEntity
  8
0
  6
CONTINUOUS
 62
         7
100
AcDbLine
 10
189.4922260098
 20
143.165500382
 30
0.0
 11
188.7422260098
 21
144.4645384877
 31
0.0
  0
LINE
  5
1D8
100
AcDbEntity
  8
0
  6
CONTINUOUS
 62
         7
100
AcDbLine
 10
191.7422260098
 20
141.8664622763
 30
0.0
 11
189.4922260098
 21
143.165500382
 31
0.0
  0
LINE
  5
1D9
100
AcDbEntity
  8
0
  6
CONTINUOUS
 62
         7
100
AcDbLine
 10
196.2422260098
 20
141.8664622763
 30
0.0
 11
191.7422260098
 21
141.8664622763
 31
0.0
  0
LINE
  5
1DA
100
AcDbEntity
  8
0
  6
CONTINUOUS
 62
         7
100
AcDbLine
 10
202.9922260098
 20
145.7635765934
 30
0.0
 11
196.2422260098
 21
141.8664622763
 31
0.0
  0
LINE
  5
1DB
100
AcDbEntity
  8
0
  6
CONTINUOUS
 62
         7
100
AcDbLine
 10
202.9922260098
 20
145.7635765934
 30
0.0
 11
209.7422260098
 21
141.8664622763
 31
0.0
  0
LINE
  5
1DC
100
AcDbEntity
  8
0
  6
CONTINUOUS
 62
         7
100
AcDbLine
 10
209.7422260098
 20
141.8664622763
 30
0.0
 11
211.9922260098
 21
137.9693479593
 31
0.0
  0
LINE
  5
1DD
100
AcDbEntity
  8
0
  6
CONTINUOUS
 62
         7
100
AcDbLine
 10
211.9922260098
 20
137.9693479593
 30
0.0
 11
211.9922260098
 21
135.3712717479
 31
0.0
  0
LINE
  5
1DE
100
AcDbEntity
  8
0
  6
CONTINUOUS
 62
         7
100
AcDbLine
 10
211.9922260098
 20
135.3712717479
 30
0.0
 11
211.2422260098
 21
134.0722336423
 31
0.0
  0
LINE
  5
1DF
100
AcDbEntity
  8
0
  6
CONTINUOUS
 62
         7
100
AcDbLine
 10
211.2422260098
 20
134.0722336423
 30
0.0
 11
210.4922260098
 21
133.6392209404
 31
0.0
  0
LINE
  5
1E0
100
AcDbEntity
  8
0
  6
CONTINUOUS
 62
         7
100
AcDbLine
 10
210.4922260098
 20
133.6392209404
 30
0.0
 11
209.9922260098
 21
133.6392209404
 31
0.0
  0
LINE
  5
1E1
100
AcDbEntity
  8
0
  6
CONTINUOUS
 62
         7
100
AcDbLine
 10
209.9922260098
 20
133.6392209404
 30
0.0
 11
209.7422260098
 21
134.0722336423
 31
0.0
  0
LINE
  5
1E2
100
AcDbEntity
  8
0
  6
CONTINUOUS
 62
         7
100
AcDbLine
 10
209.9922260098
 20
134.5052463442
 30
0.0
 11
209.7422260098
 21
134.0722336423
 31
0.0
  0
LINE
  5
1E3
100
AcDbEntity
  8
0
  6
CONTINUOUS
 62
         7
100
AcDbLine
 10
209.7422260098
 20
134.938259046
 30
0.0
 11
209.9922260098
 21
134.5052463442
 31
0.0
  0
LINE
  5
1E4
100
AcDbEntity
  8
0
  6
CONTINUOUS
 62
         7
100
AcDbLine
 10
208.9922260098
 20
135.3712717479
 30
0.0
 11
209.7422260098
 21
134.938259046
 31
0.0
  0
LINE
  5
1E5
100
AcDbEntity
  8
0
  6
CONTINUOUS
 62
         7
100
AcDbLine
 10
207.4922260098
 20
135.3712717479
 30
0.0
 11
208.9922260098
 21
135.3712717479
 31
0.0
  0
LINE
  5
1E6
100
AcDbEntity
  8
0
  6
CONTINUOUS
 62
         7
100
AcDbLine
 10
205.2422260098
 20
134.0722336423
 30
0.0
 11
207.4922260098
 21
135.3712717479
 31
0.0
  0
LINE
  5
1E7
100
AcDbEntity
  8
0
  6
CONTINUOUS
 62
         7
100
AcDbLine
 10
202.9922260098
 20
130.1751193252
 30
0.0
 11
205.2422260098
 21
134.0722336423
 31
0.0
  0
LINE
  5
1E8
100
AcDbEntity
  8
0
  6
CONTINUOUS
 62
         7
100
AcDbLine
 10
202.9922260098
 20
122.3808906912
 30
0.0
 11
202.9922260098
 21
130.1751193252
 31
0.0
  0
LINE
  5
1E9
100
AcDbEntity
  8
0
  6
CONTINUOUS
 62
         7
100
AcDbLine
 10
202.9922260098
 20
122.3808906912
 30
0.0
 11
196.2422260098
 21
134.0722336423
 31
0.0
  0
LINE
  5
1EA
100
AcDbEntity
  8
0
  6
CONTINUOUS
 62
         7
100
AcDbLine
 10
189.4922260098
 20
137.9693479593
 30
0.0
 11
196.2422260098
 21
134.0722336423
 31
0.0
  0
LINE
  5
1EB
100
AcDbEntity
  8
0
  6
CONTINUOUS
 62
         7
100
AcDbLine
 10
203.7422260098
 20
193.8279865034
 30
0.0
 11
203.7422260098
 21
192.9619610996
 31
0.0
  0
LINE
  5
1EC
100
AcDbEntity
  8
0
  6
CONTINUOUS
 62
         7
100
AcDbLine
 10
202.9922260098
 20
195.1270246091
 30
0.0
 11
203.7422260098
 21
193.8279865034
 31
0.0
  0
LINE
  5
1ED
100
AcDbEntity
  8
0
  6
CONTINUOUS
 62
         7
100
AcDbLine
 10
200.7422260098
 20
196.4260627147
 30
0.0
 11
202.9922260098
 21
195.1270246091
 31
0.0
  0
LINE
  5
1EE
100
AcDbEntity
  8
0
  6
CONTINUOUS
 62
         7
100
AcDbLine
 10
196.2422260098
 20
196.4260627147
 30
0.0
 11
200.7422260098
 21
196.4260627147
 31
0.0
  0
LINE
  5
1EF
100
AcDbEntity
  8
0
  6
CONTINUOUS
 62
         7
100
AcDbLine
 10
196.2422260098
 20
204.2202913488
 30
0.0
 11
209.7422260098
 21
204.2202913488
 31
0.0
  0
LINE
  5
1F0
100
AcDbEntity
  8
0
  6
CONTINUOUS
 62
         7
100
AcDbLine
 10
209.7422260098
 20
204.2202913488
 30
0.0
 11
216.4922260098
 21
192.5289483977
 31
0.0
  0
LINE
  5
1F1
100
AcDbEntity
  8
0
  6
CONTINUOUS
 62
         7
100
AcDbLine
 10
209.7422260098
 20
188.6318340807
 30
0.0
 11
216.4922260098
 21
192.5289483977
 31
0.0
  0
LINE
  5
1F2
100
AcDbEntity
  8
0
  6
CONTINUOUS
 62
         7
100
AcDbLine
 10
205.2422260098
 20
188.6318340807
 30
0.0
 11
209.7422260098
 21
188.6318340807
 31
0.0
  0
LINE
  5
1F3
100
AcDbEntity
  8
0
  6
CONTINUOUS
 62
         7
100
AcDbLine
 10
202.9922260098
 20
189.9308721864
 30
0.0
 11
205.2422260098
 21
188.6318340807
 31
0.0
  0
LINE
  5
1F4
100
AcDbEntity
  8
0
  6
CONTINUOUS
 62
         7
100
AcDbLine
 10
202.2422260098
 20
191.229910292
 30
0.0
 11
202.9922260098
 21
189.9308721864
 31
0.0
  0
LINE
  5
1F5
100
AcDbEntity
  8
0
  6
CONTINUOUS
 62
         7
100
AcDbLine
 10
202.2422260098
 20
192.0959356958
 30
0.0
 11
202.2422260098
 21
191.229910292
 31
0.0
  0
LINE
  5
1F6
100
AcDbEntity
  8
0
  6
CONTINUOUS
 62
         7
100
AcDbLine
 10
202.4922260098
 20
192.5289483977
 30
0.0
 11
202.2422260098
 21
192.0959356958
 31
0.0
  0
LINE
  5
1F7
100
AcDbEntity
  8
0
  6
CONTINUOUS
 62
         7
100
AcDbLine
 10
203.4922260098
 20
192.5289483977
 30
0.0
 11
202.4922260098
 21
192.5289483977
 31
0.0
  0
LINE
  5
1F8
100
AcDbEntity
  8
0
  6
CONTINUOUS
 62
         7
100
AcDbLine
 10
203.7422260098
 20
192.9619610996
 30
0.0
 11
203.4922260098
 21
192.5289483977
 31
0.0
  0
LINE
  5
1F9
100
AcDbEntity
  8
0
  6
CONTINUOUS
 62
         7
100
AcDbLine
 10
189.4922260098
 20
192.5289483977
 30
0.0
 11
196.2422260098
 21
204.2202913488
 31
0.0
  0
LINE
  5
1FA
100
AcDbEntity
  8
0
  6
CONTINUOUS
 62
         7
100
AcDbLine
 10
189.4922260098
 20
192.5289483977
 30
0.0
 11
196.2422260098
 21
196.4260627147
 31
0.0
  0
LINE
  5
1FB
100
AcDbEntity
  8
0
  6
CONTINUOUS
 62
         7
100
AcDbLine
 10
148.9922260098
 20
122.3808906912
 30
0.0
 11
155.7422260098
 21
126.2780050082
 31
0.0
  0
LINE
  5
1FC
100
AcDbEntity
  8
0
  6
CONTINUOUS
 62
         7
100
AcDbLine
 10
155.7422260098
 20
126.2780050082
 30
0.0
 11
160.2422260098
 21
126.2780050082
 31
0.0
  0
LINE
  5
1FD
100
AcDbEntity
  8
0
  6
CONTINUOUS
 62
         7
100
AcDbLine
 10
160.2422260098
 20
126.2780050082
 30
0.0
 11
162.4922260098
 21
124.9789669025
 31
0.0
  0
LINE
  5
1FE
100
AcDbEntity
  8
0
  6
CONTINUOUS
 62
         7
100
AcDbLine
 10
162.4922260098
 20
124.9789669025
 30
0.0
 11
163.2422260098
 21
123.6799287969
 31
0.0
  0
LINE
  5
1FF
100
AcDbEntity
  8
0
  6
CONTINUOUS
 62
         7
100
AcDbLine
 10
163.2422260098
 20
123.6799287969
 30
0.0
 11
163.2422260098
 21
122.8139033931
 31
0.0
  0
LINE
  5
200
100
AcDbEntity
  8
0
  6
CONTINUOUS
 62
         7
100
AcDbLine
 10
163.2422260098
 20
122.8139033931
 30
0.0
 11
162.9922260098
 21
122.3808906912
 31
0.0
  0
LINE
  5
201
100
AcDbEntity
  8
0
  6
CONTINUOUS
 62
         7
100
AcDbLine
 10
162.9922260098
 20
122.3808906912
 30
0.0
 11
162.4922260098
 21
122.3808906912
 31
0.0
  0
LINE
  5
202
100
AcDbEntity
  8
0
  6
CONTINUOUS
 62
         7
100
AcDbLine
 10
162.2422260098
 20
122.8139033931
 30
0.0
 11
162.4922260098
 21
122.3808906912
 31
0.0
  0
LINE
  5
203
100
AcDbEntity
  8
0
  6
CONTINUOUS
 62
         7
100
AcDbLine
 10
161.7422260098
 20
122.8139033931
 30
0.0
 11
162.2422260098
 21
122.8139033931
 31
0.0
  0
LINE
  5
204
100
AcDbEntity
  8
0
  6
CONTINUOUS
 62
         7
100
AcDbLine
 10
160.9922260098
 20
122.3808906912
 30
0.0
 11
161.7422260098
 21
122.8139033931
 31
0.0
  0
LINE
  5
205
100
AcDbEntity
  8
0
  6
CONTINUOUS
 62
         7
100
AcDbLine
 10
160.2422260098
 20
121.0818525855
 30
0.0
 11
160.9922260098
 21
122.3808906912
 31
0.0
  0
LINE
  5
206
100
AcDbEntity
  8
0
  6
CONTINUOUS
 62
         7
100
AcDbLine
 10
160.2422260098
 20
118.4837763741
 30
0.0
 11
160.2422260098
 21
121.0818525855
 31
0.0
  0
LINE
  5
207
100
AcDbEntity
  8
0
  6
CONTINUOUS
 62
         7
100
AcDbLine
 10
162.4922260098
 20
114.5866620571
 30
0.0
 11
160.2422260098
 21
118.4837763741
 31
0.0
  0
LINE
  5
208
100
AcDbEntity
  8
0
  6
CONTINUOUS
 62
         7
100
AcDbLine
 10
169.2422260098
 20
110.6895477401
 30
0.0
 11
162.4922260098
 21
114.5866620571
 31
0.0
  0
LINE
  5
209
100
AcDbEntity
  8
0
  6
CONTINUOUS
 62
         7
100
AcDbLine
 10
169.2422260098
 20
110.6895477401
 30
0.0
 11
142.2422260098
 21
110.6895477401
 31
0.0
  0
LINE
  5
20A
100
AcDbEntity
  8
0
  6
CONTINUOUS
 62
         7
100
AcDbLine
 10
148.9922260098
 20
122.3808906912
 30
0.0
 11
142.2422260098
 21
110.6895477401
 31
0.0
  0
LINE
  5
20B
100
AcDbEntity
  8
0
  6
CONTINUOUS
 62
         7
100
AcDbLine
 10
209.7422260098
 20
180.8376054466
 30
0.0
 11
216.4922260098
 21
169.1462624955
 31
0.0
  0
LINE
  5
20C
100
AcDbEntity
  8
0
  6
CONTINUOUS
 62
         7
100
AcDbLine
 10
209.7422260098
 20
180.8376054466
 30
0.0
 11
229.9922260098
 21
192.5289483977
 31
0.0
  0
LINE
  5
20D
100
AcDbEntity
  8
0
  6
CONTINUOUS
 62
         7
100
AcDbLine
 10
229.9922260098
 20
192.5289483977
 30
0.0
 11
216.4922260098
 21
169.1462624955
 31
0.0
  0
LINE
  5
20E
100
AcDbEntity
  8
0
  6
CONTINUOUS
 62
         7
100
AcDbLine
 10
209.7422260098
 20
204.2202913488
 30
0.0
 11
223.2422260098
 21
204.2202913488
 31
0.0
  0
LINE
  5
20F
100
AcDbEntity
  8
0
  6
CONTINUOUS
 62
         7
100
AcDbLine
 10
209.7422260098
 20
204.2202913488
 30
0.0
 11
216.4922260098
 21
192.5289483977
 31
0.0
  0
LINE
  5
210
100
AcDbEntity
  8
0
  6
CONTINUOUS
 62
         7
100
AcDbLine
 10
223.2422260098
 20
204.2202913488
 30
0.0
 11
216.4922260098
 21
192.5289483977
 31
0.0
  0
LINE
  5
211
100
AcDbEntity
  8
0
  6
CONTINUOUS
 62
         7
100
AcDbLine
 10
236.7422260098
 20
180.8376054466
 30
0.0
 11
236.7422260098
 21
188.6318340807
 31
0.0
  0
LINE
  5
212
100
AcDbEntity
  8
0
  6
CONTINUOUS
 62
         7
100
AcDbLine
 10
236.7422260098
 20
188.6318340807
 30
0.0
 11
238.9922260098
 21
192.5289483977
 31
0.0
  0
LINE
  5
213
100
AcDbEntity
  8
0
  6
CONTINUOUS
 62
         7
100
AcDbLine
 10
238.9922260098
 20
192.5289483977
 30
0.0
 11
241.2422260098
 21
193.8279865034
 31
0.0
  0
LINE
  5
214
100
AcDbEntity
  8
0
  6
CONTINUOUS
 62
         7
100
AcDbLine
 10
241.2422260098
 20
193.8279865034
 30
0.0
 11
242.7422260098
 21
193.8279865034
 31
0.0
  0
LINE
  5
215
100
AcDbEntity
  8
0
  6
CONTINUOUS
 62
         7
100
AcDbLine
 10
242.7422260098
 20
193.8279865034
 30
0.0
 11
243.4922260098
 21
193.3949738015
 31
0.0
  0
LINE
  5
216
100
AcDbEntity
  8
0
  6
CONTINUOUS
 62
         7
100
AcDbLine
 10
243.4922260098
 20
193.3949738015
 30
0.0
 11
243.7422260098
 21
192.9619610996
 31
0.0
  0
LINE
  5
217
100
AcDbEntity
  8
0
  6
CONTINUOUS
 62
         7
100
AcDbLine
 10
243.7422260098
 20
192.9619610996
 30
0.0
 11
243.4922260098
 21
192.5289483977
 31
0.0
  0
LINE
  5
218
100
AcDbEntity
  8
0
  6
CONTINUOUS
 62
         7
100
AcDbLine
 10
243.4922260098
 20
192.5289483977
 30
0.0
 11
243.2422260098
 21
192.9619610996
 31
0.0
  0
LINE
  5
219
100
AcDbEntity
  8
0
  6
CONTINUOUS
 62
         7
100
AcDbLine
 10
243.2422260098
 20
192.9619610996
 30
0.0
 11
242.7422260098
 21
192.9619610996
 31
0.0
  0
LINE
  5
21A
100
AcDbEntity
  8
0
  6
CONTINUOUS
 62
         7
100
AcDbLine
 10
242.7422260098
 20
192.9619610996
 30
0.0
 11
241.9922260098
 21
192.5289483977
 31
0.0
  0
LINE
  5
21B
100
AcDbEntity
  8
0
  6
CONTINUOUS
 62
         7
100
AcDbLine
 10
241.9922260098
 20
192.5289483977
 30
0.0
 11
241.2422260098
 21
191.229910292
 31
0.0
  0
LINE
  5
21C
100
AcDbEntity
  8
0
  6
CONTINUOUS
 62
         7
100
AcDbLine
 10
241.2422260098
 20
191.229910292
 30
0.0
 11
241.2422260098
 21
188.6318340807
 31
0.0
  0
LINE
  5
21D
100
AcDbEntity
  8
0
  6
CONTINUOUS
 62
         7
100
AcDbLine
 10
241.2422260098
 20
188.6318340807
 30
0.0
 11
243.4922260098
 21
184.7347197637
 31
0.0
  0
LINE
  5
21E
100
AcDbEntity
  8
0
  6
CONTINUOUS
 62
         7
100
AcDbLine
 10
243.4922260098
 20
184.7347197637
 30
0.0
 11
250.2422260098
 21
180.8376054466
 31
0.0
  0
LINE
  5
21F
100
AcDbEntity
  8
0
  6
CONTINUOUS
 62
         7
100
AcDbLine
 10
216.4922260098
 20
169.1462624955
 30
0.0
 11
229.9922260098
 21
169.1462624955
 31
0.0
  0
LINE
  5
220
100
AcDbEntity
  8
0
  6
CONTINUOUS
 62
         7
100
AcDbLine
 10
236.7422260098
 20
180.8376054466
 30
0.0
 11
216.4922260098
 21
169.1462624955
 31
0.0
  0
LINE
  5
221
100
AcDbEntity
  8
0
  6
CONTINUOUS
 62
         7
100
AcDbLine
 10
229.9922260098
 20
169.1462624955
 30
0.0
 11
250.2422260098
 21
180.8376054466
 31
0.0
  0
LINE
  5
222
100
AcDbEntity
  8
0
  6
CONTINUOUS
 62
         7
100
AcDbLine
 10
196.2422260098
 20
134.0722336423
 30
0.0
 11
202.9922260098
 21
122.3808906912
 31
0.0
  0
LINE
  5
223
100
AcDbEntity
  8
0
  6
CONTINUOUS
 62
         7
100
AcDbLine
 10
202.9922260098
 20
122.3808906912
 30
0.0
 11
202.9922260098
 21
130.1751193252
 31
0.0
  0
LINE
  5
224
100
AcDbEntity
  8
0
  6
CONTINUOUS
 62
         7
100
AcDbLine
 10
202.9922260098
 20
130.1751193252
 30
0.0
 11
205.2422260098
 21
134.0722336423
 31
0.0
  0
LINE
  5
225
100
AcDbEntity
  8
0
  6
CONTINUOUS
 62
         7
100
AcDbLine
 10
205.2422260098
 20
134.0722336423
 30
0.0
 11
207.4922260098
 21
135.3712717479
 31
0.0
  0
LINE
  5
226
100
AcDbEntity
  8
0
  6
CONTINUOUS
 62
         7
100
AcDbLine
 10
207.4922260098
 20
135.3712717479
 30
0.0
 11
208.9922260098
 21
135.3712717479
 31
0.0
  0
LINE
  5
227
100
AcDbEntity
  8
0
  6
CONTINUOUS
 62
         7
100
AcDbLine
 10
208.9922260098
 20
135.3712717479
 30
0.0
 11
209.7422260098
 21
134.9382590461
 31
0.0
  0
LINE
  5
228
100
AcDbEntity
  8
0
  6
CONTINUOUS
 62
         7
100
AcDbLine
 10
209.7422260098
 20
134.9382590461
 30
0.0
 11
209.9922260098
 21
134.5052463442
 31
0.0
  0
LINE
  5
229
100
AcDbEntity
  8
0
  6
CONTINUOUS
 62
         7
100
AcDbLine
 10
209.9922260098
 20
134.5052463442
 30
0.0
 11
209.7422260098
 21
134.0722336423
 31
0.0
  0
LINE
  5
22A
100
AcDbEntity
  8
0
  6
CONTINUOUS
 62
         7
100
AcDbLine
 10
209.7422260098
 20
134.0722336423
 30
0.0
 11
209.4922260098
 21
134.5052463442
 31
0.0
  0
LINE
  5
22B
100
AcDbEntity
  8
0
  6
CONTINUOUS
 62
         7
100
AcDbLine
 10
209.4922260098
 20
134.5052463442
 30
0.0
 11
208.9922260098
 21
134.5052463442
 31
0.0
  0
LINE
  5
22C
100
AcDbEntity
  8
0
  6
CONTINUOUS
 62
         7
100
AcDbLine
 10
208.9922260098
 20
134.5052463442
 30
0.0
 11
208.2422260098
 21
134.0722336423
 31
0.0
  0
LINE
  5
22D
100
AcDbEntity
  8
0
  6
CONTINUOUS
 62
         7
100
AcDbLine
 10
208.2422260098
 20
134.0722336423
 30
0.0
 11
207.4922260098
 21
132.7731955366
 31
0.0
  0
LINE
  5
22E
100
AcDbEntity
  8
0
  6
CONTINUOUS
 62
         7
100
AcDbLine
 10
207.4922260098
 20
132.7731955366
 30
0.0
 11
207.4922260098
 21
130.1751193252
 31
0.0
  0
LINE
  5
22F
100
AcDbEntity
  8
0
  6
CONTINUOUS
 62
         7
100
AcDbLine
 10
207.4922260098
 20
130.1751193252
 30
0.0
 11
209.7422260098
 21
126.2780050082
 31
0.0
  0
LINE
  5
230
100
AcDbEntity
  8
0
  6
CONTINUOUS
 62
         7
100
AcDbLine
 10
209.7422260098
 20
126.2780050082
 30
0.0
 11
216.4922260098
 21
122.3808906912
 31
0.0
  0
LINE
  5
231
100
AcDbEntity
  8
0
  6
CONTINUOUS
 62
         7
100
AcDbLine
 10
196.2422260098
 20
110.6895477401
 30
0.0
 11
216.4922260098
 21
122.3808906912
 31
0.0
  0
LINE
  5
232
100
AcDbEntity
  8
0
  6
CONTINUOUS
 62
         7
100
AcDbLine
 10
196.2422260098
 20
134.0722336423
 30
0.0
 11
196.2422260098
 21
110.6895477401
 31
0.0
  0
LINE
  5
233
100
AcDbEntity
  8
0
  6
CONTINUOUS
 62
         7
100
AcDbLine
 10
209.7422260098
 20
180.8376054466
 30
0.0
 11
202.9922260098
 21
184.7347197637
 31
0.0
  0
LINE
  5
234
100
AcDbEntity
  8
0
  6
CONTINUOUS
 62
         7
100
AcDbLine
 10
202.9922260098
 20
184.7347197637
 30
0.0
 11
200.7422260098
 21
188.6318340807
 31
0.0
  0
LINE
  5
235
100
AcDbEntity
  8
0
  6
CONTINUOUS
 62
         7
100
AcDbLine
 10
200.7422260098
 20
188.6318340807
 30
0.0
 11
200.7422260098
 21
191.229910292
 31
0.0
  0
LINE
  5
236
100
AcDbEntity
  8
0
  6
CONTINUOUS
 62
         7
100
AcDbLine
 10
200.7422260098
 20
191.229910292
 30
0.0
 11
201.4922260098
 21
192.5289483977
 31
0.0
  0
LINE
  5
237
100
AcDbEntity
  8
0
  6
CONTINUOUS
 62
         7
100
AcDbLine
 10
201.4922260098
 20
192.5289483977
 30
0.0
 11
202.2422260098
 21
192.9619610996
 31
0.0
  0
LINE
  5
238
100
AcDbEntity
  8
0
  6
CONTINUOUS
 62
         7
100
AcDbLine
 10
202.2422260098
 20
192.9619610996
 30
0.0
 11
202.7422260098
 21
192.9619610996
 31
0.0
  0
LINE
  5
239
100
AcDbEntity
  8
0
  6
CONTINUOUS
 62
         7
100
AcDbLine
 10
202.7422260098
 20
192.9619610996
 30
0.0
 11
202.9922260098
 21
192.5289483977
 31
0.0
  0
LINE
  5
23A
100
AcDbEntity
  8
0
  6
CONTINUOUS
 62
         7
100
AcDbLine
 10
202.9922260098
 20
192.5289483977
 30
0.0
 11
202.4922260098
 21
192.5289483977
 31
0.0
  0
LINE
  5
23B
100
AcDbEntity
  8
0
  6
CONTINUOUS
 62
         7
100
AcDbLine
 10
202.4922260098
 20
192.5289483977
 30
0.0
 11
202.2422260098
 21
192.0959356958
 31
0.0
  0
LINE
  5
23C
100
AcDbEntity
  8
0
  6
CONTINUOUS
 62
         7
100
AcDbLine
 10
202.2422260098
 20
192.0959356958
 30
0.0
 11
202.2422260098
 21
191.229910292
 31
0.0
  0
LINE
  5
23D
100
AcDbEntity
  8
0
  6
CONTINUOUS
 62
         7
100
AcDbLine
 10
202.2422260098
 20
191.229910292
 30
0.0
 11
202.9922260098
 21
189.9308721864
 31
0.0
  0
LINE
  5
23E
100
AcDbEntity
  8
0
  6
CONTINUOUS
 62
         7
100
AcDbLine
 10
202.9922260098
 20
189.9308721864
 30
0.0
 11
205.2422260098
 21
188.6318340807
 31
0.0
  0
LINE
  5
23F
100
AcDbEntity
  8
0
  6
CONTINUOUS
 62
         7
100
AcDbLine
 10
205.2422260098
 20
188.6318340807
 30
0.0
 11
209.7422260098
 21
188.6318340807
 31
0.0
  0
LINE
  5
240
100
AcDbEntity
  8
0
  6
CONTINUOUS
 62
         7
100
AcDbLine
 10
209.7422260098
 20
188.6318340807
 30
0.0
 11
216.4922260098
 21
192.5289483977
 31
0.0
  0
LINE
  5
241
100
AcDbEntity
  8
0
  6
CONTINUOUS
 62
         7
100
AcDbLine
 10
223.2422260098
 20
204.2202913488
 30
0.0
 11
216.4922260098
 21
192.5289483977
 31
0.0
  0
LINE
  5
242
100
AcDbEntity
  8
0
  6
CONTINUOUS
 62
         7
100
AcDbLine
 10
229.9922260098
 20
192.5289483977
 30
0.0
 11
223.2422260098
 21
204.2202913488
 31
0.0
  0
LINE
  5
243
100
AcDbEntity
  8
0
  6
CONTINUOUS
 62
         7
100
AcDbLine
 10
209.7422260098
 20
180.8376054466
 30
0.0
 11
229.9922260098
 21
192.5289483977
 31
0.0
  0
LINE
  5
244
100
AcDbEntity
  8
0
  6
CONTINUOUS
 62
         7
100
AcDbLine
 10
229.9922260098
 20
192.5289483977
 30
0.0
 11
216.4922260098
 21
169.1462624955
 31
0.0
  0
LINE
  5
245
100
AcDbEntity
  8
0
  6
CONTINUOUS
 62
         7
100
AcDbLine
 10
229.9922260098
 20
192.5289483977
 30
0.0
 11
236.7422260098
 21
196.4260627147
 31
0.0
  0
LINE
  5
246
100
AcDbEntity
  8
0
  6
CONTINUOUS
 62
         7
100
AcDbLine
 10
236.7422260098
 20
196.4260627147
 30
0.0
 11
241.2422260098
 21
196.4260627147
 31
0.0
  0
LINE
  5
247
100
AcDbEntity
  8
0
  6
CONTINUOUS
 62
         7
100
AcDbLine
 10
241.2422260098
 20
196.4260627147
 30
0.0
 11
243.4922260098
 21
195.1270246091
 31
0.0
  0
LINE
  5
248
100
AcDbEntity
  8
0
  6
CONTINUOUS
 62
         7
100
AcDbLine
 10
243.4922260098
 20
195.1270246091
 30
0.0
 11
244.2422260098
 21
193.8279865034
 31
0.0
  0
LINE
  5
249
100
AcDbEntity
  8
0
  6
CONTINUOUS
 62
         7
100
AcDbLine
 10
244.2422260098
 20
193.8279865034
 30
0.0
 11
244.2422260098
 21
192.9619610996
 31
0.0
  0
LINE
  5
24A
100
AcDbEntity
  8
0
  6
CONTINUOUS
 62
         7
100
AcDbLine
 10
244.2422260098
 20
192.9619610996
 30
0.0
 11
243.9922260098
 21
192.5289483977
 31
0.0
  0
LINE
  5
24B
100
AcDbEntity
  8
0
  6
CONTINUOUS
 62
         7
100
AcDbLine
 10
243.9922260098
 20
192.5289483977
 30
0.0
 11
243.4922260098
 21
192.5289483977
 31
0.0
  0
LINE
  5
24C
100
AcDbEntity
  8
0
  6
CONTINUOUS
 62
         7
100
AcDbLine
 10
243.4922260098
 20
192.5289483977
 30
0.0
 11
243.7422260098
 21
192.9619610996
 31
0.0
  0
LINE
  5
24D
100
AcDbEntity
  8
0
  6
CONTINUOUS
 62
         7
100
AcDbLine
 10
243.7422260098
 20
192.9619610996
 30
0.0
 11
243.4922260098
 21
193.3949738015
 31
0.0
  0
LINE
  5
24E
100
AcDbEntity
  8
0
  6
CONTINUOUS
 62
         7
100
AcDbLine
 10
243.4922260098
 20
193.3949738015
 30
0.0
 11
242.7422260098
 21
193.8279865034
 31
0.0
  0
LINE
  5
24F
100
AcDbEntity
  8
0
  6
CONTINUOUS
 62
         7
100
AcDbLine
 10
242.7422260098
 20
193.8279865034
 30
0.0
 11
241.2422260098
 21
193.8279865034
 31
0.0
  0
LINE
  5
250
100
AcDbEntity
  8
0
  6
CONTINUOUS
 62
         7
100
AcDbLine
 10
241.2422260098
 20
193.8279865034
 30
0.0
 11
238.9922260098
 21
192.5289483977
 31
0.0
  0
LINE
  5
251
100
AcDbEntity
  8
0
  6
CONTINUOUS
 62
         7
100
AcDbLine
 10
238.9922260098
 20
192.5289483977
 30
0.0
 11
236.7422260098
 21
188.6318340807
 31
0.0
  0
LINE
  5
252
100
AcDbEntity
  8
0
  6
CONTINUOUS
 62
         7
100
AcDbLine
 10
236.7422260098
 20
188.6318340807
 30
0.0
 11
236.7422260098
 21
180.8376054466
 31
0.0
  0
LINE
  5
253
100
AcDbEntity
  8
0
  6
CONTINUOUS
 62
         7
100
AcDbLine
 10
216.4922260098
 20
169.1462624955
 30
0.0
 11
236.7422260098
 21
180.8376054466
 31
0.0
  0
LINE
  5
254
100
AcDbEntity
  8
0
  6
CONTINUOUS
 62
         7
100
AcDbLine
 10
229.9922260098
 20
169.1462624955
 30
0.0
 11
209.7422260098
 21
157.4549195444
 31
0.0
  0
LINE
  5
255
100
AcDbEntity
  8
0
  6
CONTINUOUS
 62
         7
100
AcDbLine
 10
243.4922260098
 20
169.1462624955
 30
0.0
 11
229.9922260098
 21
169.1462624955
 31
0.0
  0
LINE
  5
256
100
AcDbEntity
  8
0
  6
CONTINUOUS
 62
         7
100
AcDbLine
 10
202.9922260098
 20
145.7635765934
 30
0.0
 11
243.4922260098
 21
169.1462624955
 31
0.0
  0
LINE
  5
257
100
AcDbEntity
  8
0
  6
CONTINUOUS
 62
         7
100
AcDbLine
 10
202.9922260098
 20
145.7635765934
 30
0.0
 11
209.7422260098
 21
157.4549195444
 31
0.0
  0
LINE
  5
258
100
AcDbEntity
  8
0
  6
CONTINUOUS
 62
         7
100
AcDbLine
 10
243.4922260098
 20
122.3808906912
 30
0.0
 11
263.7422260098
 21
110.6895477401
 31
0.0
  0
LINE
  5
259
100
AcDbEntity
  8
0
  6
CONTINUOUS
 62
         7
100
AcDbLine
 10
243.4922260098
 20
122.3808906912
 30
0.0
 11
256.9922260098
 21
122.3808906912
 31
0.0
  0
LINE
  5
25A
100
AcDbEntity
  8
0
  6
CONTINUOUS
 62
         7
100
AcDbLine
 10
256.9922260098
 20
145.7635765934
 30
0.0
 11
256.9922260098
 21
122.3808906912
 31
0.0
  0
LINE
  5
25B
100
AcDbEntity
  8
0
  6
CONTINUOUS
 62
         7
100
AcDbLine
 10
256.9922260098
 20
145.7635765934
 30
0.0
 11
263.7422260098
 21
134.0722336423
 31
0.0
  0
LINE
  5
25C
100
AcDbEntity
  8
0
  6
CONTINUOUS
 62
         7
100
AcDbLine
 10
263.7422260098
 20
110.6895477401
 30
0.0
 11
263.7422260098
 21
134.0722336423
 31
0.0
  0
LINE
  5
25D
100
AcDbEntity
  8
0
  6
CONTINUOUS
 62
         7
100
AcDbLine
 10
223.2422260098
 20
134.0722336423
 30
0.0
 11
243.4922260098
 21
122.3808906912
 31
0.0
  0
LINE
  5
25E
100
AcDbEntity
  8
0
  6
CONTINUOUS
 62
         7
100
AcDbLine
 10
243.4922260098
 20
122.3808906912
 30
0.0
 11
229.9922260098
 21
122.3808906912
 31
0.0
  0
LINE
  5
25F
100
AcDbEntity
  8
0
  6
CONTINUOUS
 62
         7
100
AcDbLine
 10
229.9922260098
 20
122.3808906912
 30
0.0
 11
236.7422260098
 21
110.6895477401
 31
0.0
  0
LINE
  5
260
100
AcDbEntity
  8
0
  6
CONTINUOUS
 62
         7
100
AcDbLine
 10
236.7422260098
 20
110.6895477401
 30
0.0
 11
216.4922260098
 21
122.3808906912
 31
0.0
  0
LINE
  5
261
100
AcDbEntity
  8
0
  6
CONTINUOUS
 62
         7
100
AcDbLine
 10
223.2422260098
 20
134.0722336423
 30
0.0
 11
216.4922260098
 21
122.3808906912
 31
0.0
  0
LINE
  5
262
100
AcDbEntity
  8
0
  6
CONTINUOUS
 62
         7
100
AcDbLine
 10
196.2422260098
 20
110.6895477401
 30
0.0
 11
216.4922260098
 21
122.3808906912
 31
0.0
  0
LINE
  5
263
100
AcDbEntity
  8
0
  6
CONTINUOUS
 62
         7
100
AcDbLine
 10
216.4922260098
 20
122.3808906912
 30
0.0
 11
236.7422260098
 21
110.6895477401
 31
0.0
  0
LINE
  5
264
100
AcDbEntity
  8
0
  6
CONTINUOUS
 62
         7
100
AcDbLine
 10
236.7422260098
 20
110.6895477401
 30
0.0
 11
196.2422260098
 21
110.6895477401
 31
0.0
  0
LINE
  5
265
100
AcDbEntity
  8
0
  6
CONTINUOUS
 62
         7
100
AcDbLine
 10
263.7422260098
 20
110.6895477401
 30
0.0
 11
243.4922260098
 21
122.3808906912
 31
0.0
  0
LINE
  5
266
100
AcDbEntity
  8
0
  6
CONTINUOUS
 62
         7
100
AcDbLine
 10
236.7422260098
 20
110.6895477401
 30
0.0
 11
263.7422260098
 21
110.6895477401
 31
0.0
  0
LINE
  5
267
100
AcDbEntity
  8
0
  6
CONTINUOUS
 62
         7
100
AcDbLine
 10
229.9922260098
 20
122.3808906912
 30
0.0
 11
236.7422260098
 21
110.6895477401
 31
0.0
  0
LINE
  5
268
100
AcDbEntity
  8
0
  6
CONTINUOUS
 62
         7
100
AcDbLine
 10
243.4922260098
 20
122.3808906912
 30
0.0
 11
229.9922260098
 21
122.3808906912
 31
0.0
  0
LINE
  5
269
100
AcDbEntity
  8
0
  6
CONTINUOUS
 62
         7
100
AcDbLine
 10
223.2422260098
 20
204.2202913488
 30
0.0
 11
250.2422260098
 21
204.2202913488
 31
0.0
  0
LINE
  5
26A
100
AcDbEntity
  8
0
  6
CONTINUOUS
 62
         7
100
AcDbLine
 10
250.2422260098
 20
204.2202913488
 30
0.0
 11
250.2422260098
 21
196.4260627147
 31
0.0
  0
LINE
  5
26B
100
AcDbEntity
  8
0
  6
CONTINUOUS
 62
         7
100
AcDbLine
 10
250.2422260098
 20
196.4260627147
 30
0.0
 11
247.9922260098
 21
192.5289483977
 31
0.0
  0
LINE
  5
26C
100
AcDbEntity
  8
0
  6
CONTINUOUS
 62
         7
100
AcDbLine
 10
247.9922260098
 20
192.5289483977
 30
0.0
 11
245.7422260098
 21
191.229910292
 31
0.0
  0
LINE
  5
26D
100
AcDbEntity
  8
0
  6
CONTINUOUS
 62
         7
100
AcDbLine
 10
245.7422260098
 20
191.229910292
 30
0.0
 11
244.2422260098
 21
191.229910292
 31
0.0
  0
LINE
  5
26E
100
AcDbEntity
  8
0
  6
CONTINUOUS
 62
         7
100
AcDbLine
 10
244.2422260098
 20
191.229910292
 30
0.0
 11
243.4922260098
 21
191.6629229939
 31
0.0
  0
LINE
  5
26F
100
AcDbEntity
  8
0
  6
CONTINUOUS
 62
         7
100
AcDbLine
 10
243.4922260098
 20
191.6629229939
 30
0.0
 11
243.2422260098
 21
192.0959356958
 31
0.0
  0
LINE
  5
270
100
AcDbEntity
  8
0
  6
CONTINUOUS
 62
         7
100
AcDbLine
 10
243.2422260098
 20
192.0959356958
 30
0.0
 11
243.4922260098
 21
192.5289483977
 31
0.0
  0
LINE
  5
271
100
AcDbEntity
  8
0
  6
CONTINUOUS
 62
         7
100
AcDbLine
 10
243.9922260098
 20
192.5289483977
 30
0.0
 11
243.4922260098
 21
192.5289483977
 31
0.0
  0
LINE
  5
272
100
AcDbEntity
  8
0
  6
CONTINUOUS
 62
         7
100
AcDbLine
 10
244.2422260098
 20
192.9619610996
 30
0.0
 11
243.9922260098
 21
192.5289483977
 31
0.0
  0
LINE
  5
273
100
AcDbEntity
  8
0
  6
CONTINUOUS
 62
         7
100
AcDbLine
 10
244.2422260098
 20
193.8279865034
 30
0.0
 11
244.2422260098
 21
192.9619610996
 31
0.0
  0
LINE
  5
274
100
AcDbEntity
  8
0
  6
CONTINUOUS
 62
         7
100
AcDbLine
 10
243.4922260098
 20
195.1270246091
 30
0.0
 11
244.2422260098
 21
193.8279865034
 31
0.0
  0
LINE
  5
275
100
AcDbEntity
  8
0
  6
CONTINUOUS
 62
         7
100
AcDbLine
 10
241.2422260098
 20
196.4260627147
 30
0.0
 11
243.4922260098
 21
195.1270246091
 31
0.0
  0
LINE
  5
276
100
AcDbEntity
  8
0
  6
CONTINUOUS
 62
         7
100
AcDbLine
 10
236.7422260098
 20
196.4260627147
 30
0.0
 11
241.2422260098
 21
196.4260627147
 31
0.0
  0
LINE
  5
277
100
AcDbEntity
  8
0
  6
CONTINUOUS
 62
         7
100
AcDbLine
 10
229.9922260098
 20
192.5289483977
 30
0.0
 11
236.7422260098
 21
196.4260627147
 31
0.0
  0
LINE
  5
278
100
AcDbEntity
  8
0
  6
CONTINUOUS
 62
         7
100
AcDbLine
 10
223.2422260098
 20
204.2202913488
 30
0.0
 11
229.9922260098
 21
192.5289483977
 31
0.0
  0
LINE
  5
279
100
AcDbEntity
  8
0
  6
CONTINUOUS
 62
         7
100
AcDbLine
 10
252.4922260098
 20
153.5578052274
 30
0.0
 11
250.2422260098
 21
149.6606909104
 31
0.0
  0
LINE
  5
27A
100
AcDbEntity
  8
0
  6
CONTINUOUS
 62
         7
100
AcDbLine
 10
252.4922260098
 20
156.1558814388
 30
0.0
 11
252.4922260098
 21
153.5578052274
 31
0.0
  0
LINE
  5
27B
100
AcDbEntity
  8
0
  6
CONTINUOUS
 62
         7
100
AcDbLine
 10
251.7422260098
 20
157.4549195444
 30
0.0
 11
252.4922260098
 21
156.1558814388
 31
0.0
  0
LINE
  5
27C
100
AcDbEntity
  8
0
  6
CONTINUOUS
 62
         7
100
AcDbLine
 10
250.9922260098
 20
157.8879322463
 30
0.0
 11
251.7422260098
 21
157.4549195444
 31
0.0
  0
LINE
  5
27D
100
AcDbEntity
  8
0
  6
CONTINUOUS
 62
         7
100
AcDbLine
 10
250.4922260098
 20
157.8879322463
 30
0.0
 11
250.9922260098
 21
157.8879322463
 31
0.0
  0
LINE
  5
27E
100
AcDbEntity
  8
0
  6
CONTINUOUS
 62
         7
100
AcDbLine
 10
250.2422260098
 20
157.4549195444
 30
0.0
 11
250.4922260098
 21
157.8879322463
 31
0.0
  0
LINE
  5
27F
100
AcDbEntity
  8
0
  6
CONTINUOUS
 62
         7
100
AcDbLine
 10
249.9922260098
 20
157.8879322463
 30
0.0
 11
250.2422260098
 21
157.4549195444
 31
0.0
  0
LINE
  5
280
100
AcDbEntity
  8
0
  6
CONTINUOUS
 62
         7
100
AcDbLine
 10
250.2422260098
 20
158.3209449482
 30
0.0
 11
249.9922260098
 21
157.8879322463
 31
0.0
  0
LINE
  5
281
100
AcDbEntity
  8
0
  6
CONTINUOUS
 62
         7
100
AcDbLine
 10
250.9922260098
 20
158.7539576501
 30
0.0
 11
250.2422260098
 21
158.3209449482
 31
0.0
  0
LINE
  5
282
100
AcDbEntity
  8
0
  6
CONTINUOUS
 62
         7
100
AcDbLine
 10
252.4922260098
 20
158.7539576501
 30
0.0
 11
250.9922260098
 21
158.7539576501
 31
0.0
  0
LINE
  5
283
100
AcDbEntity
  8
0
  6
CONTINUOUS
 62
         7
100
AcDbLine
 10
254.7422260098
 20
157.4549195444
 30
0.0
 11
252.4922260098
 21
158.7539576501
 31
0.0
  0
LINE
  5
284
100
AcDbEntity
  8
0
  6
CONTINUOUS
 62
         7
100
AcDbLine
 10
256.9922260098
 20
153.5578052274
 30
0.0
 11
254.7422260098
 21
157.4549195444
 31
0.0
  0
LINE
  5
285
100
AcDbEntity
  8
0
  6
CONTINUOUS
 62
         7
100
AcDbLine
 10
256.9922260098
 20
145.7635765934
 30
0.0
 11
236.7422260098
 21
134.0722336423
 31
0.0
  0
LINE
  5
286
100
AcDbEntity
  8
0
  6
CONTINUOUS
 62
         7
100
AcDbLine
 10
229.9922260098
 20
137.9693479593
 30
0.0
 11
227.7422260098
 21
141.8664622763
 31
0.0
  0
LINE
  5
287
100
AcDbEntity
  8
0
  6
CONTINUOUS
 62
         7
100
AcDbLine
 10
227.7422260098
 20
141.8664622763
 30
0.0
 11
227.7422260098
 21
144.4645384877
 31
0.0
  0
LINE
  5
288
100
AcDbEntity
  8
0
  6
CONTINUOUS
 62
         7
100
AcDbLine
 10
227.7422260098
 20
144.4645384877
 30
0.0
 11
228.4922260098
 21
145.7635765934
 31
0.0
  0
LINE
  5
289
100
AcDbEntity
  8
0
  6
CONTINUOUS
 62
         7
100
AcDbLine
 10
228.4922260098
 20
145.7635765934
 30
0.0
 11
229.2422260098
 21
146.1965892952
 31
0.0
  0
LINE
  5
28A
100
AcDbEntity
  8
0
  6
CONTINUOUS
 62
         7
100
AcDbLine
 10
229.2422260098
 20
146.1965892952
 30
0.0
 11
229.7422260098
 21
146.1965892952
 31
0.0
  0
LINE
  5
28B
100
AcDbEntity
  8
0
  6
CONTINUOUS
 62
         7
100
AcDbLine
 10
229.7422260098
 20
146.1965892952
 30
0.0
 11
229.9922260098
 21
145.7635765934
 31
0.0
  0
LINE
  5
28C
100
AcDbEntity
  8
0
  6
CONTINUOUS
 62
         7
100
AcDbLine
 10
229.9922260098
 20
145.7635765934
 30
0.0
 11
229.4922260098
 21
145.7635765934
 31
0.0
  0
LINE
  5
28D
100
AcDbEntity
  8
0
  6
CONTINUOUS
 62
         7
100
AcDbLine
 10
229.4922260098
 20
145.7635765934
 30
0.0
 11
229.2422260098
 21
145.3305638915
 31
0.0
  0
LINE
  5
28E
100
AcDbEntity
  8
0
  6
CONTINUOUS
 62
         7
100
AcDbLine
 10
229.2422260098
 20
145.3305638915
 30
0.0
 11
229.2422260098
 21
144.4645384877
 31
0.0
  0
LINE
  5
28F
100
AcDbEntity
  8
0
  6
CONTINUOUS
 62
         7
100
AcDbLine
 10
229.2422260098
 20
144.4645384877
 30
0.0
 11
229.9922260098
 21
143.165500382
 31
0.0
  0
LINE
  5
290
100
AcDbEntity
  8
0
  6
CONTINUOUS
 62
         7
100
AcDbLine
 10
229.9922260098
 20
143.165500382
 30
0.0
 11
232.2422260098
 21
141.8664622763
 31
0.0
  0
LINE
  5
291
100
AcDbEntity
  8
0
  6
CONTINUOUS
 62
         7
100
AcDbLine
 10
232.2422260098
 20
141.8664622763
 30
0.0
 11
236.7422260098
 21
141.8664622763
 31
0.0
  0
LINE
  5
292
100
AcDbEntity
  8
0
  6
CONTINUOUS
 62
         7
100
AcDbLine
 10
250.2422260098
 20
149.6606909104
 30
0.0
 11
236.7422260098
 21
141.8664622763
 31
0.0
  0
LINE
  5
293
100
AcDbEntity
  8
0
  6
CONTINUOUS
 62
         7
100
AcDbLine
 10
236.7422260098
 20
134.0722336423
 30
0.0
 11
229.9922260098
 21
137.9693479593
 31
0.0
  0
LINE
  5
294
100
AcDbEntity
  8
0
  6
CONTINUOUS
 62
         7
100
AcDbLine
 10
256.9922260098
 20
145.7635765934
 30
0.0
 11
256.9922260098
 21
153.5578052274
 31
0.0
  0
LINE
  5
295
100
AcDbEntity
  8
0
  6
CONTINUOUS
 62
         7
100
AcDbLine
 10
256.9922260098
 20
153.5578052274
 30
0.0
 11
254.7422260098
 21
157.4549195444
 31
0.0
  0
LINE
  5
296
100
AcDbEntity
  8
0
  6
CONTINUOUS
 62
         7
100
AcDbLine
 10
254.7422260098
 20
157.4549195444
 30
0.0
 11
252.4922260098
 21
158.7539576501
 31
0.0
  0
LINE
  5
297
100
AcDbEntity
  8
0
  6
CONTINUOUS
 62
         7
100
AcDbLine
 10
252.4922260098
 20
158.7539576501
 30
0.0
 11
250.9922260098
 21
158.7539576501
 31
0.0
  0
LINE
  5
298
100
AcDbEntity
  8
0
  6
CONTINUOUS
 62
         7
100
AcDbLine
 10
250.9922260098
 20
158.7539576501
 30
0.0
 11
250.2422260098
 21
158.3209449482
 31
0.0
  0
LINE
  5
299
100
AcDbEntity
  8
0
  6
CONTINUOUS
 62
         7
100
AcDbLine
 10
250.2422260098
 20
158.3209449482
 30
0.0
 11
249.9922260098
 21
157.8879322463
 31
0.0
  0
LINE
  5
29A
100
AcDbEntity
  8
0
  6
CONTINUOUS
 62
         7
100
AcDbLine
 10
249.9922260098
 20
157.8879322463
 30
0.0
 11
250.2422260098
 21
157.4549195444
 31
0.0
  0
LINE
  5
29B
100
AcDbEntity
  8
0
  6
CONTINUOUS
 62
         7
100
AcDbLine
 10
249.9922260098
 20
157.0219068425
 30
0.0
 11
250.2422260098
 21
157.4549195444
 31
0.0
  0
LINE
  5
29C
100
AcDbEntity
  8
0
  6
CONTINUOUS
 62
         7
100
AcDbLine
 10
249.4922260098
 20
157.0219068425
 30
0.0
 11
249.9922260098
 21
157.0219068425
 31
0.0
  0
LINE
  5
29D
100
AcDbEntity
  8
0
  6
CONTINUOUS
 62
         7
100
AcDbLine
 10
248.7422260098
 20
157.4549195444
 30
0.0
 11
249.4922260098
 21
157.0219068425
 31
0.0
  0
LINE
  5
29E
100
AcDbEntity
  8
0
  6
CONTINUOUS
 62
         7
100
AcDbLine
 10
247.9922260098
 20
158.7539576501
 30
0.0
 11
248.7422260098
 21
157.4549195444
 31
0.0
  0
LINE
  5
29F
100
AcDbEntity
  8
0
  6
CONTINUOUS
 62
         7
100
AcDbLine
 10
247.9922260098
 20
161.3520338615
 30
0.0
 11
247.9922260098
 21
158.7539576501
 31
0.0
  0
LINE
  5
2A0
100
AcDbEntity
  8
0
  6
CONTINUOUS
 62
         7
100
AcDbLine
 10
250.2422260098
 20
165.2491481785
 30
0.0
 11
247.9922260098
 21
161.3520338615
 31
0.0
  0
LINE
  5
2A1
100
AcDbEntity
  8
0
  6
CONTINUOUS
 62
         7
100
AcDbLine
 10
256.9922260098
 20
169.1462624955
 30
0.0
 11
250.2422260098
 21
165.2491481785
 31
0.0
  0
LINE
  5
2A2
100
AcDbEntity
  8
0
  6
CONTINUOUS
 62
         7
100
AcDbLine
 10
263.7422260098
 20
157.4549195444
 30
0.0
 11
256.9922260098
 21
169.1462624955
 31
0.0
  0
LINE
  5
2A3
100
AcDbEntity
  8
0
  6
CONTINUOUS
 62
         7
100
AcDbLine
 10
263.7422260098
 20
134.0722336423
 30
0.0
 11
256.9922260098
 21
145.7635765934
 31
0.0
  0
LINE
  5
2A4
100
AcDbEntity
  8
0
  6
CONTINUOUS
 62
         7
100
AcDbLine
 10
263.7422260098
 20
157.4549195444
 30
0.0
 11
263.7422260098
 21
134.0722336423
 31
0.0
  0
LINE
  5
2A5
100
AcDbEntity
  8
0
  6
CONTINUOUS
 62
         7
100
AcDbLine
 10
256.9922260098
 20
145.7635765934
 30
0.0
 11
256.9922260098
 21
153.5578052274
 31
0.0
  0
LINE
  5
2A6
100
AcDbEntity
  8
0
  6
CONTINUOUS
 62
         7
100
AcDbLine
 10
227.7422260098
 20
149.6606909104
 30
0.0
 11
223.2422260098
 21
149.6606909104
 31
0.0
  0
LINE
  5
2A7
100
AcDbEntity
  8
0
  6
CONTINUOUS
 62
         7
100
AcDbLine
 10
229.9922260098
 20
148.3616528047
 30
0.0
 11
227.7422260098
 21
149.6606909104
 31
0.0
  0
LINE
  5
2A8
100
AcDbEntity
  8
0
  6
CONTINUOUS
 62
         7
100
AcDbLine
 10
230.7422260098
 20
147.062614699
 30
0.0
 11
229.9922260098
 21
148.3616528047
 31
0.0
  0
LINE
  5
2A9
100
AcDbEntity
  8
0
  6
CONTINUOUS
 62
         7
100
AcDbLine
 10
230.7422260098
 20
146.1965892953
 30
0.0
 11
230.7422260098
 21
147.062614699
 31
0.0
  0
LINE
  5
2AA
100
AcDbEntity
  8
0
  6
CONTINUOUS
 62
         7
100
AcDbLine
 10
230.4922260098
 20
145.7635765934
 30
0.0
 11
230.7422260098
 21
146.1965892953
 31
0.0
  0
LINE
  5
2AB
100
AcDbEntity
  8
0
  6
CONTINUOUS
 62
         7
100
AcDbLine
 10
229.9922260098
 20
145.7635765934
 30
0.0
 11
230.4922260098
 21
145.7635765934
 31
0.0
  0
LINE
  5
2AC
100
AcDbEntity
  8
0
  6
CONTINUOUS
 62
         7
100
AcDbLine
 10
230.2422260098
 20
146.1965892953
 30
0.0
 11
229.9922260098
 21
145.7635765934
 31
0.0
  0
LINE
  5
2AD
100
AcDbEntity
  8
0
  6
CONTINUOUS
 62
         7
100
AcDbLine
 10
229.9922260098
 20
146.6296019971
 30
0.0
 11
230.2422260098
 21
146.1965892953
 31
0.0
  0
LINE
  5
2AE
100
AcDbEntity
  8
0
  6
CONTINUOUS
 62
         7
100
AcDbLine
 10
229.2422260098
 20
147.062614699
 30
0.0
 11
229.9922260098
 21
146.6296019971
 31
0.0
  0
LINE
  5
2AF
100
AcDbEntity
  8
0
  6
CONTINUOUS
 62
         7
100
AcDbLine
 10
227.7422260098
 20
147.062614699
 30
0.0
 11
229.2422260098
 21
147.062614699
 31
0.0
  0
LINE
  5
2B0
100
AcDbEntity
  8
0
  6
CONTINUOUS
 62
         7
100
AcDbLine
 10
225.4922260098
 20
145.7635765934
 30
0.0
 11
227.7422260098
 21
147.062614699
 31
0.0
  0
LINE
  5
2B1
100
AcDbEntity
  8
0
  6
CONTINUOUS
 62
         7
100
AcDbLine
 10
223.2422260098
 20
141.8664622763
 30
0.0
 11
225.4922260098
 21
145.7635765934
 31
0.0
  0
LINE
  5
2B2
100
AcDbEntity
  8
0
  6
CONTINUOUS
 62
         7
100
AcDbLine
 10
223.2422260098
 20
134.0722336423
 30
0.0
 11
223.2422260098
 21
141.8664622763
 31
0.0
  0
LINE
  5
2B3
100
AcDbEntity
  8
0
  6
CONTINUOUS
 62
         7
100
AcDbLine
 10
223.2422260098
 20
134.0722336423
 30
0.0
 11
216.4922260098
 21
122.3808906912
 31
0.0
  0
LINE
  5
2B4
100
AcDbEntity
  8
0
  6
CONTINUOUS
 62
         7
100
AcDbLine
 10
216.4922260098
 20
122.3808906912
 30
0.0
 11
209.7422260098
 21
126.2780050082
 31
0.0
  0
LINE
  5
2B5
100
AcDbEntity
  8
0
  6
CONTINUOUS
 62
         7
100
AcDbLine
 10
209.7422260098
 20
126.2780050082
 30
0.0
 11
207.4922260098
 21
130.1751193252
 31
0.0
  0
LINE
  5
2B6
100
AcDbEntity
  8
0
  6
CONTINUOUS
 62
         7
100
AcDbLine
 10
207.4922260098
 20
130.1751193252
 30
0.0
 11
207.4922260098
 21
132.7731955366
 31
0.0
  0
LINE
  5
2B7
100
AcDbEntity
  8
0
  6
CONTINUOUS
 62
         7
100
AcDbLine
 10
207.4922260098
 20
132.7731955366
 30
0.0
 11
208.2422260098
 21
134.0722336423
 31
0.0
  0
LINE
  5
2B8
100
AcDbEntity
  8
0
  6
CONTINUOUS
 62
         7
100
AcDbLine
 10
208.2422260098
 20
134.0722336423
 30
0.0
 11
208.9922260098
 21
134.5052463442
 31
0.0
  0
LINE
  5
2B9
100
AcDbEntity
  8
0
  6
CONTINUOUS
 62
         7
100
AcDbLine
 10
208.9922260098
 20
134.5052463442
 30
0.0
 11
209.4922260098
 21
134.5052463442
 31
0.0
  0
LINE
  5
2BA
100
AcDbEntity
  8
0
  6
CONTINUOUS
 62
         7
100
AcDbLine
 10
209.4922260098
 20
134.5052463442
 30
0.0
 11
209.7422260098
 21
134.0722336423
 31
0.0
  0
LINE
  5
2BB
100
AcDbEntity
  8
0
  6
CONTINUOUS
 62
         7
100
AcDbLine
 10
209.4922260098
 20
133.6392209404
 30
0.0
 11
209.7422260098
 21
134.0722336423
 31
0.0
  0
LINE
  5
2BC
100
AcDbEntity
  8
0
  6
CONTINUOUS
 62
         7
100
AcDbLine
 10
209.7422260098
 20
133.2062082385
 30
0.0
 11
209.4922260098
 21
133.6392209404
 31
0.0
  0
LINE
  5
2BD
100
AcDbEntity
  8
0
  6
CONTINUOUS
 62
         7
100
AcDbLine
 10
210.4922260098
 20
132.7731955366
 30
0.0
 11
209.7422260098
 21
133.2062082385
 31
0.0
  0
LINE
  5
2BE
100
AcDbEntity
  8
0
  6
CONTINUOUS
 62
         7
100
AcDbLine
 10
211.9922260098
 20
132.7731955366
 30
0.0
 11
210.4922260098
 21
132.7731955366
 31
0.0
  0
LINE
  5
2BF
100
AcDbEntity
  8
0
  6
CONTINUOUS
 62
         7
100
AcDbLine
 10
214.2422260098
 20
134.0722336423
 30
0.0
 11
211.9922260098
 21
132.7731955366
 31
0.0
  0
LINE
  5
2C0
100
AcDbEntity
  8
0
  6
CONTINUOUS
 62
         7
100
AcDbLine
 10
216.4922260098
 20
137.9693479593
 30
0.0
 11
214.2422260098
 21
134.0722336423
 31
0.0
  0
LINE
  5
2C1
100
AcDbEntity
  8
0
  6
CONTINUOUS
 62
         7
100
AcDbLine
 10
216.4922260098
 20
145.7635765934
 30
0.0
 11
216.4922260098
 21
137.9693479593
 31
0.0
  0
LINE
  5
2C2
100
AcDbEntity
  8
0
  6
CONTINUOUS
 62
         7
100
AcDbLine
 10
223.2422260098
 20
149.6606909104
 30
0.0
 11
216.4922260098
 21
145.7635765934
 31
0.0
  0
LINE
  5
2C3
100
AcDbEntity
  8
0
  6
CONTINUOUS
 62
         7
100
AcDbLine
 10
223.2422260098
 20
134.0722336423
 30
0.0
 11
243.4922260098
 21
122.3808906912
 31
0.0
  0
LINE
  5
2C4
100
AcDbEntity
  8
0
  6
CONTINUOUS
 62
         7
100
AcDbLine
 10
223.2422260098
 20
134.0722336423
 30
0.0
 11
223.2422260098
 21
141.8664622763
 31
0.0
  0
LINE
  5
2C5
100
AcDbEntity
  8
0
  6
CONTINUOUS
 62
         7
100
AcDbLine
 10
223.2422260098
 20
141.8664622763
 30
0.0
 11
225.4922260098
 21
145.7635765934
 31
0.0
  0
LINE
  5
2C6
100
AcDbEntity
  8
0
  6
CONTINUOUS
 62
         7
100
AcDbLine
 10
225.4922260098
 20
145.7635765934
 30
0.0
 11
227.7422260098
 21
147.062614699
 31
0.0
  0
LINE
  5
2C7
100
AcDbEntity
  8
0
  6
CONTINUOUS
 62
         7
100
AcDbLine
 10
227.7422260098
 20
147.062614699
 30
0.0
 11
229.2422260098
 21
147.062614699
 31
0.0
  0
LINE
  5
2C8
100
AcDbEntity
  8
0
  6
CONTINUOUS
 62
         7
100
AcDbLine
 10
229.2422260098
 20
147.062614699
 30
0.0
 11
229.9922260098
 21
146.6296019971
 31
0.0
  0
LINE
  5
2C9
100
AcDbEntity
  8
0
  6
CONTINUOUS
 62
         7
100
AcDbLine
 10
229.9922260098
 20
146.6296019971
 30
0.0
 11
230.2422260098
 21
146.1965892952
 31
0.0
  0
LINE
  5
2CA
100
AcDbEntity
  8
0
  6
CONTINUOUS
 62
         7
100
AcDbLine
 10
230.2422260098
 20
146.1965892952
 30
0.0
 11
229.9922260098
 21
145.7635765934
 31
0.0
  0
LINE
  5
2CB
100
AcDbEntity
  8
0
  6
CONTINUOUS
 62
         7
100
AcDbLine
 10
229.9922260098
 20
145.7635765934
 30
0.0
 11
229.7422260098
 21
146.1965892952
 31
0.0
  0
LINE
  5
2CC
100
AcDbEntity
  8
0
  6
CONTINUOUS
 62
         7
100
AcDbLine
 10
229.7422260098
 20
146.1965892952
 30
0.0
 11
229.2422260098
 21
146.1965892952
 31
0.0
  0
LINE
  5
2CD
100
AcDbEntity
  8
0
  6
CONTINUOUS
 62
         7
100
AcDbLine
 10
229.2422260098
 20
146.1965892952
 30
0.0
 11
228.4922260098
 21
145.7635765934
 31
0.0
  0
LINE
  5
2CE
100
AcDbEntity
  8
0
  6
CONTINUOUS
 62
         7
100
AcDbLine
 10
228.4922260098
 20
145.7635765934
 30
0.0
 11
227.7422260098
 21
144.4645384877
 31
0.0
  0
LINE
  5
2CF
100
AcDbEntity
  8
0
  6
CONTINUOUS
 62
         7
100
AcDbLine
 10
227.7422260098
 20
144.4645384877
 30
0.0
 11
227.7422260098
 21
141.8664622763
 31
0.0
  0
LINE
  5
2D0
100
AcDbEntity
  8
0
  6
CONTINUOUS
 62
         7
100
AcDbLine
 10
227.7422260098
 20
141.8664622763
 30
0.0
 11
229.9922260098
 21
137.9693479593
 31
0.0
  0
LINE
  5
2D1
100
AcDbEntity
  8
0
  6
CONTINUOUS
 62
         7
100
AcDbLine
 10
229.9922260098
 20
137.9693479593
 30
0.0
 11
256.9922260098
 21
122.3808906912
 31
0.0
  0
LINE
  5
2D2
100
AcDbEntity
  8
0
  6
CONTINUOUS
 62
         7
100
AcDbLine
 10
256.9922260098
 20
122.3808906912
 30
0.0
 11
243.4922260098
 21
122.3808906912
 31
0.0
  0
LINE
  5
2D3
100
AcDbEntity
  8
0
  6
CONTINUOUS
 62
         7
100
AcDbLine
 10
243.4922260098
 20
161.3520338615
 30
0.0
 11
243.4922260098
 21
169.1462624955
 31
0.0
  0
LINE
  5
2D4
100
AcDbEntity
  8
0
  6
CONTINUOUS
 62
         7
100
AcDbLine
 10
245.7422260098
 20
157.4549195444
 30
0.0
 11
243.4922260098
 21
161.3520338615
 31
0.0
  0
LINE
  5
2D5
100
AcDbEntity
  8
0
  6
CONTINUOUS
 62
         7
100
AcDbLine
 10
247.9922260098
 20
156.1558814388
 30
0.0
 11
245.7422260098
 21
157.4549195444
 31
0.0
  0
LINE
  5
2D6
100
AcDbEntity
  8
0
  6
CONTINUOUS
 62
         7
100
AcDbLine
 10
249.4922260098
 20
156.1558814388
 30
0.0
 11
247.9922260098
 21
156.1558814388
 31
0.0
  0
LINE
  5
2D7
100
AcDbEntity
  8
0
  6
CONTINUOUS
 62
         7
100
AcDbLine
 10
250.2422260098
 20
156.5888941407
 30
0.0
 11
249.4922260098
 21
156.1558814388
 31
0.0
  0
LINE
  5
2D8
100
AcDbEntity
  8
0
  6
CONTINUOUS
 62
         7
100
AcDbLine
 10
250.4922260098
 20
157.0219068426
 30
0.0
 11
250.2422260098
 21
156.5888941407
 31
0.0
  0
LINE
  5
2D9
100
AcDbEntity
  8
0
  6
CONTINUOUS
 62
         7
100
AcDbLine
 10
250.2422260098
 20
157.4549195444
 30
0.0
 11
250.4922260098
 21
157.0219068426
 31
0.0
  0
LINE
  5
2DA
100
AcDbEntity
  8
0
  6
CONTINUOUS
 62
         7
100
AcDbLine
 10
250.7422260098
 20
157.4549195444
 30
0.0
 11
250.2422260098
 21
157.4549195444
 31
0.0
  0
LINE
  5
2DB
100
AcDbEntity
  8
0
  6
CONTINUOUS
 62
         7
100
AcDbLine
 10
250.9922260098
 20
157.0219068426
 30
0.0
 11
250.7422260098
 21
157.4549195444
 31
0.0
  0
LINE
  5
2DC
100
AcDbEntity
  8
0
  6
CONTINUOUS
 62
         7
100
AcDbLine
 10
250.9922260098
 20
156.1558814388
 30
0.0
 11
250.9922260098
 21
157.0219068426
 31
0.0
  0
LINE
  5
2DD
100
AcDbEntity
  8
0
  6
CONTINUOUS
 62
         7
100
AcDbLine
 10
250.2422260098
 20
154.8568433331
 30
0.0
 11
250.9922260098
 21
156.1558814388
 31
0.0
  0
LINE
  5
2DE
100
AcDbEntity
  8
0
  6
CONTINUOUS
 62
         7
100
AcDbLine
 10
247.9922260098
 20
153.5578052274
 30
0.0
 11
250.2422260098
 21
154.8568433331
 31
0.0
  0
LINE
  5
2DF
100
AcDbEntity
  8
0
  6
CONTINUOUS
 62
         7
100
AcDbLine
 10
243.4922260098
 20
153.5578052274
 30
0.0
 11
247.9922260098
 21
153.5578052274
 31
0.0
  0
LINE
  5
2E0
100
AcDbEntity
  8
0
  6
CONTINUOUS
 62
         7
100
AcDbLine
 10
236.7422260098
 20
157.4549195444
 30
0.0
 11
243.4922260098
 21
153.5578052274
 31
0.0
  0
LINE
  5
2E1
100
AcDbEntity
  8
0
  6
CONTINUOUS
 62
         7
100
AcDbLine
 10
236.7422260098
 20
157.4549195444
 30
0.0
 11
236.7422260098
 21
149.6606909104
 31
0.0
  0
LINE
  5
2E2
100
AcDbEntity
  8
0
  6
CONTINUOUS
 62
         7
100
AcDbLine
 10
236.7422260098
 20
149.6606909104
 30
0.0
 11
234.4922260098
 21
145.7635765934
 31
0.0
  0
LINE
  5
2E3
100
AcDbEntity
  8
0
  6
CONTINUOUS
 62
         7
100
AcDbLine
 10
234.4922260098
 20
145.7635765934
 30
0.0
 11
232.2422260098
 21
144.4645384877
 31
0.0
  0
LINE
  5
2E4
100
AcDbEntity
  8
0
  6
CONTINUOUS
 62
         7
100
AcDbLine
 10
232.2422260098
 20
144.4645384877
 30
0.0
 11
230.7422260098
 21
144.4645384877
 31
0.0
  0
LINE
  5
2E5
100
AcDbEntity
  8
0
  6
CONTINUOUS
 62
         7
100
AcDbLine
 10
230.7422260098
 20
144.4645384877
 30
0.0
 11
229.9922260098
 21
144.8975511896
 31
0.0
  0
LINE
  5
2E6
100
AcDbEntity
  8
0
  6
CONTINUOUS
 62
         7
100
AcDbLine
 10
229.9922260098
 20
144.8975511896
 30
0.0
 11
229.7422260098
 21
145.3305638915
 31
0.0
  0
LINE
  5
2E7
100
AcDbEntity
  8
0
  6
CONTINUOUS
 62
         7
100
AcDbLine
 10
229.7422260098
 20
145.3305638915
 30
0.0
 11
229.9922260098
 21
145.7635765934
 31
0.0
  0
LINE
  5
2E8
100
AcDbEntity
  8
0
  6
CONTINUOUS
 62
         7
100
AcDbLine
 10
229.9922260098
 20
145.7635765934
 30
0.0
 11
230.2422260098
 21
145.3305638915
 31
0.0
  0
LINE
  5
2E9
100
AcDbEntity
  8
0
  6
CONTINUOUS
 62
         7
100
AcDbLine
 10
230.2422260098
 20
145.3305638915
 30
0.0
 11
230.7422260098
 21
145.3305638915
 31
0.0
  0
LINE
  5
2EA
100
AcDbEntity
  8
0
  6
CONTINUOUS
 62
         7
100
AcDbLine
 10
230.7422260098
 20
145.3305638915
 30
0.0
 11
231.4922260098
 21
145.7635765934
 31
0.0
  0
LINE
  5
2EB
100
AcDbEntity
  8
0
  6
CONTINUOUS
 62
         7
100
AcDbLine
 10
231.4922260098
 20
145.7635765934
 30
0.0
 11
232.2422260098
 21
147.062614699
 31
0.0
  0
LINE
  5
2EC
100
AcDbEntity
  8
0
  6
CONTINUOUS
 62
         7
100
AcDbLine
 10
232.2422260098
 20
147.062614699
 30
0.0
 11
232.2422260098
 21
149.6606909104
 31
0.0
  0
LINE
  5
2ED
100
AcDbEntity
  8
0
  6
CONTINUOUS
 62
         7
100
AcDbLine
 10
232.2422260098
 20
149.6606909104
 30
0.0
 11
229.9922260098
 21
153.5578052274
 31
0.0
  0
LINE
  5
2EE
100
AcDbEntity
  8
0
  6
CONTINUOUS
 62
         7
100
AcDbLine
 10
229.9922260098
 20
153.5578052274
 30
0.0
 11
223.2422260098
 21
157.4549195444
 31
0.0
  0
LINE
  5
2EF
100
AcDbEntity
  8
0
  6
CONTINUOUS
 62
         7
100
AcDbLine
 10
223.2422260098
 20
157.4549195444
 30
0.0
 11
243.4922260098
 21
169.1462624955
 31
0.0
  0
LINE
  5
2F0
100
AcDbEntity
  8
0
  6
CONTINUOUS
 62
         7
100
AcDbLine
 10
250.2422260098
 20
165.2491481785
 30
0.0
 11
256.9922260098
 21
169.1462624955
 31
0.0
  0
LINE
  5
2F1
100
AcDbEntity
  8
0
  6
CONTINUOUS
 62
         7
100
AcDbLine
 10
247.9922260098
 20
161.3520338615
 30
0.0
 11
250.2422260098
 21
165.2491481785
 31
0.0
  0
LINE
  5
2F2
100
AcDbEntity
  8
0
  6
CONTINUOUS
 62
         7
100
AcDbLine
 10
247.9922260098
 20
158.7539576501
 30
0.0
 11
247.9922260098
 21
161.3520338615
 31
0.0
  0
LINE
  5
2F3
100
AcDbEntity
  8
0
  6
CONTINUOUS
 62
         7
100
AcDbLine
 10
248.7422260098
 20
157.4549195444
 30
0.0
 11
247.9922260098
 21
158.7539576501
 31
0.0
  0
LINE
  5
2F4
100
AcDbEntity
  8
0
  6
CONTINUOUS
 62
         7
100
AcDbLine
 10
249.4922260098
 20
157.0219068426
 30
0.0
 11
248.7422260098
 21
157.4549195444
 31
0.0
  0
LINE
  5
2F5
100
AcDbEntity
  8
0
  6
CONTINUOUS
 62
         7
100
AcDbLine
 10
249.9922260098
 20
157.0219068426
 30
0.0
 11
249.4922260098
 21
157.0219068426
 31
0.0
  0
LINE
  5
2F6
100
AcDbEntity
  8
0
  6
CONTINUOUS
 62
         7
100
AcDbLine
 10
250.2422260098
 20
157.4549195444
 30
0.0
 11
249.9922260098
 21
157.0219068426
 31
0.0
  0
LINE
  5
2F7
100
AcDbEntity
  8
0
  6
CONTINUOUS
 62
         7
100
AcDbLine
 10
250.4922260098
 20
157.0219068426
 30
0.0
 11
250.2422260098
 21
157.4549195444
 31
0.0
  0
LINE
  5
2F8
100
AcDbEntity
  8
0
  6
CONTINUOUS
 62
         7
100
AcDbLine
 10
250.2422260098
 20
156.5888941407
 30
0.0
 11
250.4922260098
 21
157.0219068426
 31
0.0
  0
LINE
  5
2F9
100
AcDbEntity
  8
0
  6
CONTINUOUS
 62
         7
100
AcDbLine
 10
249.4922260098
 20
156.1558814388
 30
0.0
 11
250.2422260098
 21
156.5888941407
 31
0.0
  0
LINE
  5
2FA
100
AcDbEntity
  8
0
  6
CONTINUOUS
 62
         7
100
AcDbLine
 10
247.9922260098
 20
156.1558814388
 30
0.0
 11
249.4922260098
 21
156.1558814388
 31
0.0
  0
LINE
  5
2FB
100
AcDbEntity
  8
0
  6
CONTINUOUS
 62
         7
100
AcDbLine
 10
245.7422260098
 20
157.4549195444
 30
0.0
 11
247.9922260098
 21
156.1558814388
 31
0.0
  0
LINE
  5
2FC
100
AcDbEntity
  8
0
  6
CONTINUOUS
 62
         7
100
AcDbLine
 10
243.4922260098
 20
161.3520338615
 30
0.0
 11
245.7422260098
 21
157.4549195444
 31
0.0
  0
LINE
  5
2FD
100
AcDbEntity
  8
0
  6
CONTINUOUS
 62
         7
100
AcDbLine
 10
263.7422260098
 20
180.8376054466
 30
0.0
 11
263.7422260098
 21
157.4549195444
 31
0.0
  0
LINE
  5
2FE
100
AcDbEntity
  8
0
  6
CONTINUOUS
 62
         7
100
AcDbLine
 10
263.7422260098
 20
157.4549195444
 30
0.0
 11
256.9922260098
 21
169.1462624955
 31
0.0
  0
LINE
  5
2FF
100
AcDbEntity
  8
0
  6
CONTINUOUS
 62
         7
100
AcDbLine
 10
243.4922260098
 20
169.1462624955
 30
0.0
 11
243.4922260098
 21
161.3520338615
 31
0.0
  0
LINE
  5
300
100
AcDbEntity
  8
0
  6
CONTINUOUS
 62
         7
100
AcDbLine
 10
243.4922260098
 20
169.1462624955
 30
0.0
 11
263.7422260098
 21
180.8376054466
 31
0.0
  0
LINE
  5
301
100
AcDbEntity
  8
0
  6
CONTINUOUS
 62
         7
100
AcDbLine
 10
263.7422260098
 20
180.8376054466
 30
0.0
 11
256.9922260098
 21
192.5289483977
 31
0.0
  0
LINE
  5
302
100
AcDbEntity
  8
0
  6
CONTINUOUS
 62
         7
100
AcDbLine
 10
263.7422260098
 20
180.8376054466
 30
0.0
 11
243.4922260098
 21
169.1462624955
 31
0.0
  0
LINE
  5
303
100
AcDbEntity
  8
0
  6
CONTINUOUS
 62
         7
100
AcDbLine
 10
229.9922260098
 20
169.1462624955
 30
0.0
 11
243.4922260098
 21
169.1462624955
 31
0.0
  0
LINE
  5
304
100
AcDbEntity
  8
0
  6
CONTINUOUS
 62
         7
100
AcDbLine
 10
229.9922260098
 20
169.1462624955
 30
0.0
 11
250.2422260098
 21
180.8376054466
 31
0.0
  0
LINE
  5
305
100
AcDbEntity
  8
0
  6
CONTINUOUS
 62
         7
100
AcDbLine
 10
256.9922260098
 20
192.5289483977
 30
0.0
 11
250.2422260098
 21
180.8376054466
 31
0.0
  0
LINE
  5
306
100
AcDbEntity
  8
0
  6
CONTINUOUS
 62
         7
100
AcDbLine
 10
256.9922260098
 20
192.5289483977
 30
0.0
 11
263.7422260098
 21
204.2202913488
 31
0.0
  0
LINE
  5
307
100
AcDbEntity
  8
0
  6
CONTINUOUS
 62
         7
100
AcDbLine
 10
256.9922260098
 20
192.5289483977
 30
0.0
 11
250.2422260098
 21
188.6318340807
 31
0.0
  0
LINE
  5
308
100
AcDbEntity
  8
0
  6
CONTINUOUS
 62
         7
100
AcDbLine
 10
250.2422260098
 20
188.6318340807
 30
0.0
 11
245.7422260098
 21
188.6318340807
 31
0.0
  0
LINE
  5
309
100
AcDbEntity
  8
0
  6
CONTINUOUS
 62
         7
100
AcDbLine
 10
245.7422260098
 20
188.6318340807
 30
0.0
 11
243.4922260098
 21
189.9308721864
 31
0.0
  0
LINE
  5
30A
100
AcDbEntity
  8
0
  6
CONTINUOUS
 62
         7
100
AcDbLine
 10
243.4922260098
 20
189.9308721864
 30
0.0
 11
242.7422260098
 21
191.229910292
 31
0.0
  0
LINE
  5
30B
100
AcDbEntity
  8
0
  6
CONTINUOUS
 62
         7
100
AcDbLine
 10
242.7422260098
 20
191.229910292
 30
0.0
 11
242.7422260098
 21
192.0959356958
 31
0.0
  0
LINE
  5
30C
100
AcDbEntity
  8
0
  6
CONTINUOUS
 62
         7
100
AcDbLine
 10
242.7422260098
 20
192.0959356958
 30
0.0
 11
242.9922260098
 21
192.5289483977
 31
0.0
  0
LINE
  5
30D
100
AcDbEntity
  8
0
  6
CONTINUOUS
 62
         7
100
AcDbLine
 10
242.9922260098
 20
192.5289483977
 30
0.0
 11
243.4922260098
 21
192.5289483977
 31
0.0
  0
LINE
  5
30E
100
AcDbEntity
  8
0
  6
CONTINUOUS
 62
         7
100
AcDbLine
 10
243.4922260098
 20
192.5289483977
 30
0.0
 11
243.2422260098
 21
192.0959356958
 31
0.0
  0
LINE
  5
30F
100
AcDbEntity
  8
0
  6
CONTINUOUS
 62
         7
100
AcDbLine
 10
243.2422260098
 20
192.0959356958
 30
0.0
 11
243.4922260098
 21
191.6629229939
 31
0.0
  0
LINE
  5
310
100
AcDbEntity
  8
0
  6
CONTINUOUS
 62
         7
100
AcDbLine
 10
243.4922260098
 20
191.6629229939
 30
0.0
 11
244.2422260098
 21
191.229910292
 31
0.0
  0
LINE
  5
311
100
AcDbEntity
  8
0
  6
CONTINUOUS
 62
         7
100
AcDbLine
 10
244.2422260098
 20
191.229910292
 30
0.0
 11
245.7422260098
 21
191.229910292
 31
0.0
  0
LINE
  5
312
100
AcDbEntity
  8
0
  6
CONTINUOUS
 62
         7
100
AcDbLine
 10
245.7422260098
 20
191.229910292
 30
0.0
 11
247.9922260098
 21
192.5289483977
 31
0.0
  0
LINE
  5
313
100
AcDbEntity
  8
0
  6
CONTINUOUS
 62
         7
100
AcDbLine
 10
247.9922260098
 20
192.5289483977
 30
0.0
 11
250.2422260098
 21
196.4260627147
 31
0.0
  0
LINE
  5
314
100
AcDbEntity
  8
0
  6
CONTINUOUS
 62
         7
100
AcDbLine
 10
250.2422260098
 20
196.4260627147
 30
0.0
 11
250.2422260098
 21
204.2202913488
 31
0.0
  0
LINE
  5
315
100
AcDbEntity
  8
0
  6
CONTINUOUS
 62
         7
100
AcDbLine
 10
263.7422260098
 20
204.2202913488
 30
0.0
 11
250.2422260098
 21
204.2202913488
 31
0.0
  0
LINE
  5
316
100
AcDbEntity
  8
0
  6
CONTINUOUS
 62
         7
100
AcDbLine
 10
232.2422260098
 20
141.8664622763
 30
0.0
 11
229.9922260098
 21
143.165500382
 31
0.0
  0
LINE
  5
317
100
AcDbEntity
  8
0
  6
CONTINUOUS
 62
         7
100
AcDbLine
 10
229.9922260098
 20
143.165500382
 30
0.0
 11
229.2422260098
 21
144.4645384877
 31
0.0
  0
LINE
  5
318
100
AcDbEntity
  8
0
  6
CONTINUOUS
 62
         7
100
AcDbLine
 10
229.2422260098
 20
144.4645384877
 30
0.0
 11
229.2422260098
 21
145.3305638915
 31
0.0
  0
LINE
  5
319
100
AcDbEntity
  8
0
  6
CONTINUOUS
 62
         7
100
AcDbLine
 10
229.2422260098
 20
145.3305638915
 30
0.0
 11
229.4922260098
 21
145.7635765934
 31
0.0
  0
LINE
  5
31A
100
AcDbEntity
  8
0
  6
CONTINUOUS
 62
         7
100
AcDbLine
 10
229.4922260098
 20
145.7635765934
 30
0.0
 11
229.9922260098
 21
145.7635765934
 31
0.0
  0
LINE
  5
31B
100
AcDbEntity
  8
0
  6
CONTINUOUS
 62
         7
100
AcDbLine
 10
229.9922260098
 20
145.7635765934
 30
0.0
 11
229.7422260098
 21
145.3305638915
 31
0.0
  0
LINE
  5
31C
100
AcDbEntity
  8
0
  6
CONTINUOUS
 62
         7
100
AcDbLine
 10
229.7422260098
 20
145.3305638915
 30
0.0
 11
229.9922260098
 21
144.8975511896
 31
0.0
  0
LINE
  5
31D
100
AcDbEntity
  8
0
  6
CONTINUOUS
 62
         7
100
AcDbLine
 10
229.9922260098
 20
144.8975511896
 30
0.0
 11
230.7422260098
 21
144.4645384877
 31
0.0
  0
LINE
  5
31E
100
AcDbEntity
  8
0
  6
CONTINUOUS
 62
         7
100
AcDbLine
 10
230.7422260098
 20
144.4645384877
 30
0.0
 11
232.2422260098
 21
144.4645384877
 31
0.0
  0
LINE
  5
31F
100
AcDbEntity
  8
0
  6
CONTINUOUS
 62
         7
100
AcDbLine
 10
232.2422260098
 20
144.4645384877
 30
0.0
 11
234.4922260098
 21
145.7635765934
 31
0.0
  0
LINE
  5
320
100
AcDbEntity
  8
0
  6
CONTINUOUS
 62
         7
100
AcDbLine
 10
234.4922260098
 20
145.7635765934
 30
0.0
 11
236.7422260098
 21
149.6606909104
 31
0.0
  0
LINE
  5
321
100
AcDbEntity
  8
0
  6
CONTINUOUS
 62
         7
100
AcDbLine
 10
236.7422260098
 20
149.6606909104
 30
0.0
 11
236.7422260098
 21
157.4549195444
 31
0.0
  0
LINE
  5
322
100
AcDbEntity
  8
0
  6
CONTINUOUS
 62
         7
100
AcDbLine
 10
243.4922260098
 20
153.5578052274
 30
0.0
 11
236.7422260098
 21
157.4549195444
 31
0.0
  0
LINE
  5
323
100
AcDbEntity
  8
0
  6
CONTINUOUS
 62
         7
100
AcDbLine
 10
247.9922260098
 20
153.5578052274
 30
0.0
 11
243.4922260098
 21
153.5578052274
 31
0.0
  0
LINE
  5
324
100
AcDbEntity
  8
0
  6
CONTINUOUS
 62
         7
100
AcDbLine
 10
250.2422260098
 20
154.8568433331
 30
0.0
 11
247.9922260098
 21
153.5578052274
 31
0.0
  0
LINE
  5
325
100
AcDbEntity
  8
0
  6
CONTINUOUS
 62
         7
100
AcDbLine
 10
250.9922260098
 20
156.1558814388
 30
0.0
 11
250.2422260098
 21
154.8568433331
 31
0.0
  0
LINE
  5
326
100
AcDbEntity
  8
0
  6
CONTINUOUS
 62
         7
100
AcDbLine
 10
250.9922260098
 20
157.0219068426
 30
0.0
 11
250.9922260098
 21
156.1558814388
 31
0.0
  0
LINE
  5
327
100
AcDbEntity
  8
0
  6
CONTINUOUS
 62
         7
100
AcDbLine
 10
250.7422260098
 20
157.4549195444
 30
0.0
 11
250.9922260098
 21
157.0219068426
 31
0.0
  0
LINE
  5
328
100
AcDbEntity
  8
0
  6
CONTINUOUS
 62
         7
100
AcDbLine
 10
250.2422260098
 20
157.4549195444
 30
0.0
 11
250.7422260098
 21
157.4549195444
 31
0.0
  0
LINE
  5
329
100
AcDbEntity
  8
0
  6
CONTINUOUS
 62
         7
100
AcDbLine
 10
250.4922260098
 20
157.8879322463
 30
0.0
 11
250.2422260098
 21
157.4549195444
 31
0.0
  0
LINE
  5
32A
100
AcDbEntity
  8
0
  6
CONTINUOUS
 62
         7
100
AcDbLine
 10
250.9922260098
 20
157.8879322463
 30
0.0
 11
250.4922260098
 21
157.8879322463
 31
0.0
  0
LINE
  5
32B
100
AcDbEntity
  8
0
  6
CONTINUOUS
 62
         7
100
AcDbLine
 10
251.7422260098
 20
157.4549195444
 30
0.0
 11
250.9922260098
 21
157.8879322463
 31
0.0
  0
LINE
  5
32C
100
AcDbEntity
  8
0
  6
CONTINUOUS
 62
         7
100
AcDbLine
 10
252.4922260098
 20
156.1558814388
 30
0.0
 11
251.7422260098
 21
157.4549195444
 31
0.0
  0
LINE
  5
32D
100
AcDbEntity
  8
0
  6
CONTINUOUS
 62
         7
100
AcDbLine
 10
252.4922260098
 20
153.5578052274
 30
0.0
 11
252.4922260098
 21
156.1558814388
 31
0.0
  0
LINE
  5
32E
100
AcDbEntity
  8
0
  6
CONTINUOUS
 62
         7
100
AcDbLine
 10
250.2422260098
 20
149.6606909104
 30
0.0
 11
252.4922260098
 21
153.5578052274
 31
0.0
  0
LINE
  5
32F
100
AcDbEntity
  8
0
  6
CONTINUOUS
 62
         7
100
AcDbLine
 10
236.7422260098
 20
141.8664622763
 30
0.0
 11
250.2422260098
 21
149.6606909104
 31
0.0
  0
LINE
  5
330
100
AcDbEntity
  8
0
  6
CONTINUOUS
 62
         7
100
AcDbLine
 10
236.7422260098
 20
141.8664622763
 30
0.0
 11
232.2422260098
 21
141.8664622763
 31
0.0
  0
LINE
  5
331
100
AcDbEntity
  8
0
  6
CONTINUOUS
 62
         7
100
AcDbLine
 10
263.7422260098
 20
180.8376054466
 30
0.0
 11
256.9922260098
 21
192.5289483977
 31
0.0
  0
LINE
  5
332
100
AcDbEntity
  8
0
  6
CONTINUOUS
 62
         7
100
AcDbLine
 10
263.7422260098
 20
180.8376054466
 30
0.0
 11
263.7422260098
 21
204.2202913488
 31
0.0
  0
LINE
  5
333
100
AcDbEntity
  8
0
  6
CONTINUOUS
 62
         7
100
AcDbLine
 10
256.9922260098
 20
192.5289483977
 30
0.0
 11
263.7422260098
 21
204.2202913488
 31
0.0
  0
LINE
  5
334
100
AcDbEntity
  8
0
  6
CONTINUOUS
 62
         7
100
AcDbLine
 10
241.2422260098
 20
188.6318340807
 30
0.0
 11
241.2422260098
 21
191.229910292
 31
0.0
  0
LINE
  5
335
100
AcDbEntity
  8
0
  6
CONTINUOUS
 62
         7
100
AcDbLine
 10
241.2422260098
 20
191.229910292
 30
0.0
 11
241.9922260098
 21
192.5289483977
 31
0.0
  0
LINE
  5
336
100
AcDbEntity
  8
0
  6
CONTINUOUS
 62
         7
100
AcDbLine
 10
241.9922260098
 20
192.5289483977
 30
0.0
 11
242.7422260098
 21
192.9619610996
 31
0.0
  0
LINE
  5
337
100
AcDbEntity
  8
0
  6
CONTINUOUS
 62
         7
100
AcDbLine
 10
242.7422260098
 20
192.9619610996
 30
0.0
 11
243.2422260098
 21
192.9619610996
 31
0.0
  0
LINE
  5
338
100
AcDbEntity
  8
0
  6
CONTINUOUS
 62
         7
100
AcDbLine
 10
243.2422260098
 20
192.9619610996
 30
0.0
 11
243.4922260098
 21
192.5289483977
 31
0.0
  0
LINE
  5
339
100
AcDbEntity
  8
0
  6
CONTINUOUS
 62
         7
100
AcDbLine
 10
243.4922260098
 20
192.5289483977
 30
0.0
 11
242.9922260098
 21
192.5289483977
 31
0.0
  0
LINE
  5
33A
100
AcDbEntity
  8
0
  6
CONTINUOUS
 62
         7
100
AcDbLine
 10
242.9922260098
 20
192.5289483977
 30
0.0
 11
242.7422260098
 21
192.0959356958
 31
0.0
  0
LINE
  5
33B
100
AcDbEntity
  8
0
  6
CONTINUOUS
 62
         7
100
AcDbLine
 10
242.7422260098
 20
192.0959356958
 30
0.0
 11
242.7422260098
 21
191.229910292
 31
0.0
  0
LINE
  5
33C
100
AcDbEntity
  8
0
  6
CONTINUOUS
 62
         7
100
AcDbLine
 10
242.7422260098
 20
191.229910292
 30
0.0
 11
243.4922260098
 21
189.9308721864
 31
0.0
  0
LINE
  5
33D
100
AcDbEntity
  8
0
  6
CONTINUOUS
 62
         7
100
AcDbLine
 10
243.4922260098
 20
189.9308721864
 30
0.0
 11
245.7422260098
 21
188.6318340807
 31
0.0
  0
LINE
  5
33E
100
AcDbEntity
  8
0
  6
CONTINUOUS
 62
         7
100
AcDbLine
 10
245.7422260098
 20
188.6318340807
 30
0.0
 11
250.2422260098
 21
188.6318340807
 31
0.0
  0
LINE
  5
33F
100
AcDbEntity
  8
0
  6
CONTINUOUS
 62
         7
100
AcDbLine
 10
250.2422260098
 20
188.6318340807
 30
0.0
 11
256.9922260098
 21
192.5289483977
 31
0.0
  0
LINE
  5
340
100
AcDbEntity
  8
0
  6
CONTINUOUS
 62
         7
100
AcDbLine
 10
256.9922260098
 20
192.5289483977
 30
0.0
 11
250.2422260098
 21
180.8376054466
 31
0.0
  0
LINE
  5
341
100
AcDbEntity
  8
0
  6
CONTINUOUS
 62
         7
100
AcDbLine
 10
243.4922260098
 20
184.7347197637
 30
0.0
 11
241.2422260098
 21
188.6318340807
 31
0.0
  0
LINE
  5
342
100
AcDbEntity
  8
0
  6
CONTINUOUS
 62
         7
100
AcDbLine
 10
250.2422260098
 20
180.8376054466
 30
0.0
 11
243.4922260098
 21
184.7347197637
 31
0.0
  0
LINE
  5
343
100
AcDbEntity
  8
0
  6
CONTINUOUS
 62
         7
100
AcDbLine
 10
288.9922260098
 20
157.4549195444
 30
0.0
 11
288.9922260098
 21
149.6606909104
 31
0.0
  0
LINE
  5
344
100
AcDbEntity
  8
0
  6
CONTINUOUS
 62
         7
100
AcDbLine
 10
288.9922260098
 20
149.6606909104
 30
0.0
 11
286.7422260098
 21
145.7635765934
 31
0.0
  0
LINE
  5
345
100
AcDbEntity
  8
0
  6
CONTINUOUS
 62
         7
100
AcDbLine
 10
286.7422260098
 20
145.7635765934
 30
0.0
 11
284.4922260098
 21
144.4645384877
 31
0.0
  0
LINE
  5
346
100
AcDbEntity
  8
0
  6
CONTINUOUS
 62
         7
100
AcDbLine
 10
284.4922260098
 20
144.4645384877
 30
0.0
 11
282.9922260098
 21
144.4645384877
 31
0.0
  0
LINE
  5
347
100
AcDbEntity
  8
0
  6
CONTINUOUS
 62
         7
100
AcDbLine
 10
282.9922260098
 20
144.4645384877
 30
0.0
 11
282.2422260098
 21
144.8975511896
 31
0.0
  0
LINE
  5
348
100
AcDbEntity
  8
0
  6
CONTINUOUS
 62
         7
100
AcDbLine
 10
282.2422260098
 20
144.8975511896
 30
0.0
 11
281.9922260098
 21
145.3305638915
 31
0.0
  0
LINE
  5
349
100
AcDbEntity
  8
0
  6
CONTINUOUS
 62
         7
100
AcDbLine
 10
281.9922260098
 20
145.3305638915
 30
0.0
 11
282.2422260098
 21
145.7635765934
 31
0.0
  0
LINE
  5
34A
100
AcDbEntity
  8
0
  6
CONTINUOUS
 62
         7
100
AcDbLine
 10
282.2422260098
 20
145.7635765934
 30
0.0
 11
282.4922260098
 21
145.3305638915
 31
0.0
  0
LINE
  5
34B
100
AcDbEntity
  8
0
  6
CONTINUOUS
 62
         7
100
AcDbLine
 10
282.4922260098
 20
145.3305638915
 30
0.0
 11
282.9922260098
 21
145.3305638915
 31
0.0
  0
LINE
  5
34C
100
AcDbEntity
  8
0
  6
CONTINUOUS
 62
         7
100
AcDbLine
 10
282.9922260098
 20
145.3305638915
 30
0.0
 11
283.7422260098
 21
145.7635765934
 31
0.0
  0
LINE
  5
34D
100
AcDbEntity
  8
0
  6
CONTINUOUS
 62
         7
100
AcDbLine
 10
283.7422260098
 20
145.7635765934
 30
0.0
 11
284.4922260098
 21
147.062614699
 31
0.0
  0
LINE
  5
34E
100
AcDbEntity
  8
0
  6
CONTINUOUS
 62
         7
100
AcDbLine
 10
284.4922260098
 20
147.062614699
 30
0.0
 11
284.4922260098
 21
149.6606909104
 31
0.0
  0
LINE
  5
34F
100
AcDbEntity
  8
0
  6
CONTINUOUS
 62
         7
100
AcDbLine
 10
284.4922260098
 20
149.6606909104
 30
0.0
 11
282.2422260098
 21
153.5578052274
 31
0.0
  0
LINE
  5
350
100
AcDbEntity
  8
0
  6
CONTINUOUS
 62
         7
100
AcDbLine
 10
282.2422260098
 20
153.5578052274
 30
0.0
 11
275.4922260098
 21
157.4549195444
 31
0.0
  0
LINE
  5
351
100
AcDbEntity
  8
0
  6
CONTINUOUS
 62
         7
100
AcDbLine
 10
268.7422260098
 20
169.1462624955
 30
0.0
 11
275.4922260098
 21
157.4549195444
 31
0.0
  0
LINE
  5
352
100
AcDbEntity
  8
0
  6
CONTINUOUS
 62
         7
100
AcDbLine
 10
288.9922260098
 20
157.4549195444
 30
0.0
 11
268.7422260098
 21
169.1462624955
 31
0.0
  0
LINE
  5
353
100
AcDbEntity
  8
0
  6
CONTINUOUS
 62
         7
100
AcDbLine
 10
288.9922260098
 20
157.4549195444
 30
0.0
 11
285.6172260098
 21
163.30059102
 31
0.0
  0
LINE
  5
354
100
AcDbEntity
  8
0
  6
CONTINUOUS
 62
         7
100
AcDbLine
 10
295.7422260098
 20
169.1462624955
 30
0.0
 11
288.9922260098
 21
157.4549195444
 31
0.0
  0
LINE
  5
355
100
AcDbEntity
  8
0
  6
CONTINUOUS
 62
         7
100
AcDbLine
 10
285.6172260098
 20
163.30059102
 30
0.0
 11
295.7422260098
 21
169.1462624955
 31
0.0
  0
LINE
  5
356
100
AcDbEntity
  8
0
  6
CONTINUOUS
 62
         7
100
AcDbLine
 10
282.2422260098
 20
169.1462624955
 30
0.0
 11
278.8672260098
 21
163.30059102
 31
0.0
  0
LINE
  5
357
100
AcDbEntity
  8
0
  6
CONTINUOUS
 62
         7
100
AcDbLine
 10
288.9922260098
 20
157.4549195444
 30
0.0
 11
282.2422260098
 21
169.1462624955
 31
0.0
  0
LINE
  5
358
100
AcDbEntity
  8
0
  6
CONTINUOUS
 62
         7
100
AcDbLine
 10
278.8672260098
 20
163.30059102
 30
0.0
 11
288.9922260098
 21
157.4549195444
 31
0.0
  0
LINE
  5
359
100
AcDbEntity
  8
0
  6
CONTINUOUS
 62
         7
100
AcDbLine
 10
254.6091019478
 20
133.4908589722
 30
0.0
 11
254.4520506658
 21
133.4908589722
 31
0.0
  0
LINE
  5
35A
100
AcDbEntity
  8
0
  6
CONTINUOUS
 62
         7
100
AcDbLine
 10
254.6091019478
 20
133.9206466325
 30
0.0
 11
254.6091019478
 21
133.4908589722
 31
0.0
  0
POLYLINE
  5
35B
100
AcDbEntity
  8
0
  6
CONTINUOUS
 62
         7
100
AcDb2dPolyline
 66
         1
 10
0.0
 20
0.0
 30
0.0
 70
       128
  0
VERTEX
  5
35C
100
AcDbEntity
  8
0
100
AcDbVertex
100
AcDb2dVertex
 10
254.6371468196
 20
134.3595488761
 30
0.0
  0
VERTEX
  5
35D
100
AcDbEntity
  8
0
100
AcDbVertex
100
AcDb2dVertex
 10
254.6120795307
 20
134.1144736372
 30
0.0
  0
VERTEX
  5
35E
100
AcDbEntity
  8
0
100
AcDbVertex
100
AcDb2dVertex
 10
254.6091019478
 20
133.9206466325
 30
0.0
  0
SEQEND
  5
35F
100
AcDbEntity
  8
0
  0
POLYLINE
  5
360
100
AcDbEntity
  8
0
  6
CONTINUOUS
 62
         7
100
AcDb2dPolyline
 66
         1
 10
0.0
 20
0.0
 30
0.0
 70
       128
  0
VERTEX
  5
361
100
AcDbEntity
  8
0
100
AcDbVertex
100
AcDb2dVertex
 10
254.8913034703
 20
134.6350897415
 30
0.0
  0
VERTEX
  5
362
100
AcDbEntity
  8
0
100
AcDbVertex
100
AcDb2dVertex
 10
254.7855772163
 20
134.6006798561
 30
0.0
  0
VERTEX
  5
363
100
AcDbEntity
  8
0
100
AcDbVertex
100
AcDb2dVertex
 10
254.7060605864
 20
134.5217741258
 30
0.0
  0
VERTEX
  5
364
100
AcDbEntity
  8
0
100
AcDbVertex
100
AcDb2dVertex
 10
254.6371468196
 20
134.3595488761
 30
0.0
  0
SEQEND
  5
365
100
AcDbEntity
  8
0
  0
POLYLINE
  5
366
100
AcDbEntity
  8
0
  6
CONTINUOUS
 62
         7
100
AcDb2dPolyline
 66
         1
 10
0.0
 20
0.0
 30
0.0
 70
       128
  0
VERTEX
  5
367
100
AcDbEntity
  8
0
100
AcDbVertex
100
AcDb2dVertex
 10
254.9715819158
 20
134.6123032831
 30
0.0
  0
VERTEX
  5
368
100
AcDbEntity
  8
0
100
AcDbVertex
100
AcDb2dVertex
 10
254.9277803908
 20
134.6294753668
 30
0.0
  0
VERTEX
  5
369
100
AcDbEntity
  8
0
100
AcDbVertex
100
AcDb2dVertex
 10
254.8913034703
 20
134.6350897415
 30
0.0
  0
SEQEND
  5
36A
100
AcDbEntity
  8
0
  0
LINE
  5
36B
100
AcDbEntity
  8
0
  6
CONTINUOUS
 62
         7
100
AcDbLine
 10
255.0578198965
 20
134.7483209113
 30
0.0
 11
254.9715819158
 21
134.6123032831
 31
0.0
  0
POLYLINE
  5
36C
100
AcDbEntity
  8
0
  6
CONTINUOUS
 62
         7
100
AcDb2dPolyline
 66
         1
 10
0.0
 20
0.0
 30
0.0
 70
       128
  0
VERTEX
  5
36D
100
AcDbEntity
  8
0
100
AcDbVertex
100
AcDb2dVertex
 10
254.9211011465
 20
134.7921410235
 30
0.0
  0
VERTEX
  5
36E
100
AcDbEntity
  8
0
100
AcDbVertex
100
AcDb2dVertex
 10
255.0006205113
 20
134.7766828273
 30
0.0
  0
VERTEX
  5
36F
100
AcDbEntity
  8
0
100
AcDbVertex
100
AcDb2dVertex
 10
255.0578198965
 20
134.7483209113
 30
0.0
  0
SEQEND
  5
370
100
AcDbEntity
  8
0
  0
POLYLINE
  5
371
100
AcDbEntity
  8
0
  6
CONTINUOUS
 62
         7
100
AcDb2dPolyline
 66
         1
 10
0.0
 20
0.0
 30
0.0
 70
       128
  0
VERTEX
  5
372
100
AcDbEntity
  8
0
100
AcDbVertex
100
AcDb2dVertex
 10
254.6091019478
 20
134.5814539242
 30
0.0
  0
VERTEX
  5
373
100
AcDbEntity
  8
0
100
AcDbVertex
100
AcDb2dVertex
 10
254.7575602657
 20
134.7422462151
 30
0.0
  0
VERTEX
  5
374
100
AcDbEntity
  8
0
100
AcDbVertex
100
AcDb2dVertex
 10
254.8357177996
 20
134.779154046
 30
0.0
  0
VERTEX
  5
375
100
AcDbEntity
  8
0
100
AcDbVertex
100
AcDb2dVertex
 10
254.9211011465
 20
134.7921410235
 30
0.0
  0
SEQEND
  5
376
100
AcDbEntity
  8
0
  0
LINE
  5
377
100
AcDbEntity
  8
0
  6
CONTINUOUS
 62
         7
100
AcDbLine
 10
254.6091019478
 20
134.7697051261
 30
0.0
 11
254.6091019478
 21
134.5814539242
 31
0.0
  0
LINE
  5
378
100
AcDbEntity
  8
0
  6
CONTINUOUS
 62
         7
100
AcDbLine
 10
254.4520506658
 20
134.7697051261
 30
0.0
 11
254.6091019478
 21
134.7697051261
 31
0.0
  0
LINE
  5
379
100
AcDbEntity
  8
0
  6
CONTINUOUS
 62
         7
100
AcDbLine
 10
254.4520506658
 20
133.4908589722
 30
0.0
 11
254.4520506658
 21
134.7697051261
 31
0.0
  0
POLYLINE
  5
37A
100
AcDbEntity
  8
0
  6
CONTINUOUS
 62
         7
100
AcDb2dPolyline
 66
         1
 10
0.0
 20
0.0
 30
0.0
 70
       128
  0
VERTEX
  5
37B
100
AcDbEntity
  8
0
100
AcDbVertex
100
AcDb2dVertex
 10
253.2517301529
 20
133.4684230748
 30
0.0
  0
VERTEX
  5
37C
100
AcDbEntity
  8
0
100
AcDbVertex
100
AcDb2dVertex
 10
253.1895814448
 20
133.4821435445
 30
0.0
  0
VERTEX
  5
37D
100
AcDbEntity
  8
0
100
AcDbVertex
100
AcDb2dVertex
 10
253.1394683877
 20
133.5213715951
 30
0.0
  0
VERTEX
  5
37E
100
AcDbEntity
  8
0
100
AcDbVertex
100
AcDb2dVertex
 10
253.1143068389
 20
133.5647876726
 30
0.0
  0
VERTEX
  5
37F
100
AcDbEntity
  8
0
100
AcDbVertex
100
AcDb2dVertex
 10
253.1058968196
 20
133.6142564081
 30
0.0
  0
SEQEND
  5
380
100
AcDbEntity
  8
0
  0
POLYLINE
  5
381
100
AcDbEntity
  8
0
  6
CONTINUOUS
 62
         7
100
AcDb2dPolyline
 66
         1
 10
0.0
 20
0.0
 30
0.0
 70
       128
  0
VERTEX
  5
382
100
AcDbEntity
  8
0
100
AcDbVertex
100
AcDb2dVertex
 10
253.3975634863
 20
133.6142564081
 30
0.0
  0
VERTEX
  5
383
100
AcDbEntity
  8
0
100
AcDbVertex
100
AcDb2dVertex
 10
253.384072353
 20
133.5520267729
 30
0.0
  0
VERTEX
  5
384
100
AcDbEntity
  8
0
100
AcDbVertex
100
AcDb2dVertex
 10
253.3446800691
 20
133.5018773244
 30
0.0
  0
VERTEX
  5
385
100
AcDbEntity
  8
0
100
AcDbVertex
100
AcDb2dVertex
 10
253.3012388931
 20
133.4767244692
 30
0.0
  0
VERTEX
  5
386
100
AcDbEntity
  8
0
100
AcDbVertex
100
AcDb2dVertex
 10
253.2517301529
 20
133.4684230748
 30
0.0
  0
SEQEND
  5
387
100
AcDbEntity
  8
0
  0
POLYLINE
  5
388
100
AcDbEntity
  8
0
  6
CONTINUOUS
 62
         7
100
AcDb2dPolyline
 66
         1
 10
0.0
 20
0.0
 30
0.0
 70
       128
  0
VERTEX
  5
389
100
AcDbEntity
  8
0
100
AcDbVertex
100
AcDb2dVertex
 10
253.2517301529
 20
133.7600897415
 30
0.0
  0
VERTEX
  5
38A
100
AcDbEntity
  8
0
100
AcDbVertex
100
AcDb2dVertex
 10
253.3141161001
 20
133.7467752589
 30
0.0
  0
VERTEX
  5
38B
100
AcDbEntity
  8
0
100
AcDbVertex
100
AcDb2dVertex
 10
253.3642304011
 20
133.7073025698
 30
0.0
  0
VERTEX
  5
38C
100
AcDbEntity
  8
0
100
AcDbVertex
100
AcDb2dVertex
 10
253.3896262956
 20
133.6639389731
 30
0.0
  0
VERTEX
  5
38D
100
AcDbEntity
  8
0
100
AcDbVertex
100
AcDb2dVertex
 10
253.3975634863
 20
133.6142564081
 30
0.0
  0
SEQEND
  5
38E
100
AcDbEntity
  8
0
  0
POLYLINE
  5
38F
100
AcDbEntity
  8
0
  6
CONTINUOUS
 62
         7
100
AcDb2dPolyline
 66
         1
 10
0.0
 20
0.0
 30
0.0
 70
       128
  0
VERTEX
  5
390
100
AcDbEntity
  8
0
100
AcDbVertex
100
AcDb2dVertex
 10
253.1058968196
 20
133.6142564081
 30
0.0
  0
VERTEX
  5
391
100
AcDbEntity
  8
0
100
AcDbVertex
100
AcDb2dVertex
 10
253.119386666
 20
133.6765561007
 30
0.0
  0
VERTEX
  5
392
100
AcDbEntity
  8
0
100
AcDbVertex
100
AcDb2dVertex
 10
253.1586277116
 20
133.7268272016
 30
0.0
  0
VERTEX
  5
393
100
AcDbEntity
  8
0
100
AcDbVertex
100
AcDb2dVertex
 10
253.2021386646
 20
133.7519066168
 30
0.0
  0
VERTEX
  5
394
100
AcDbEntity
  8
0
100
AcDbVertex
100
AcDb2dVertex
 10
253.2517301529
 20
133.7600897415
 30
0.0
  0
SEQEND
  5
395
100
AcDbEntity
  8
0
  0
LINE
  5
396
100
AcDbEntity
  8
0
  6
CONTINUOUS
 62
         7
100
AcDbLine
 10
249.4039737427
 20
133.4908589722
 30
0.0
 11
249.2469224606
 21
133.4908589722
 31
0.0
  0
LINE
  5
397
100
AcDbEntity
  8
0
  6
CONTINUOUS
 62
         7
100
AcDbLine
 10
249.4039737427
 20
134.0289699498
 30
0.0
 11
249.4039737427
 21
133.4908589722
 31
0.0
  0
POLYLINE
  5
398
100
AcDbEntity
  8
0
  6
CONTINUOUS
 62
         7
100
AcDb2dPolyline
 66
         1
 10
0.0
 20
0.0
 30
0.0
 70
       128
  0
VERTEX
  5
399
100
AcDbEntity
  8
0
100
AcDbVertex
100
AcDb2dVertex
 10
249.8176356017
 20
134.6350897415
 30
0.0
  0
VERTEX
  5
39A
100
AcDbEntity
  8
0
100
AcDbVertex
100
AcDb2dVertex
 10
249.6671610848
 20
134.6033019007
 30
0.0
  0
VERTEX
  5
39B
100
AcDbEntity
  8
0
100
AcDbVertex
100
AcDb2dVertex
 10
249.5402688889
 20
134.5160214924
 30
0.0
  0
VERTEX
  5
39C
100
AcDbEntity
  8
0
100
AcDbVertex
100
AcDb2dVertex
 10
249.4545871225
 20
134.388069576
 30
0.0
  0
VERTEX
  5
39D
100
AcDbEntity
  8
0
100
AcDbVertex
100
AcDb2dVertex
 10
249.4039737427
 20
134.0289699498
 30
0.0
  0
SEQEND
  5
39E
100
AcDbEntity
  8
0
  0
POLYLINE
  5
39F
100
AcDbEntity
  8
0
  6
CONTINUOUS
 62
         7
100
AcDb2dPolyline
 66
         1
 10
0.0
 20
0.0
 30
0.0
 70
       128
  0
VERTEX
  5
3A0
100
AcDbEntity
  8
0
100
AcDbVertex
100
AcDb2dVertex
 10
250.1219224606
 20
134.141149437
 30
0.0
  0
VERTEX
  5
3A1
100
AcDbEntity
  8
0
100
AcDbVertex
100
AcDb2dVertex
 10
250.0857605692
 20
134.4708532154
 30
0.0
  0
VERTEX
  5
3A2
100
AcDbEntity
  8
0
100
AcDbVertex
100
AcDb2dVertex
 10
250.0414186627
 20
134.5410980302
 30
0.0
  0
VERTEX
  5
3A3
100
AcDbEntity
  8
0
100
AcDbVertex
100
AcDb2dVertex
 10
249.9771439701
 20
134.5938387272
 30
0.0
  0
VERTEX
  5
3A4
100
AcDbEntity
  8
0
100
AcDbVertex
100
AcDb2dVertex
 10
249.8176356017
 20
134.6350897415
 30
0.0
  0
SEQEND
  5
3A5
100
AcDbEntity
  8
0
  0
LINE
  5
3A6
100
AcDbEntity
  8
0
  6
CONTINUOUS
 62
         7
100
AcDbLine
 10
250.1219224606
 20
133.4908589722
 30
0.0
 11
250.1219224606
 21
134.141149437
 31
0.0
  0
LINE
  5
3A7
100
AcDbEntity
  8
0
  6
CONTINUOUS
 62
         7
100
AcDbLine
 10
250.2789737427
 20
133.4908589722
 30
0.0
 11
250.1219224606
 21
133.4908589722
 31
0.0
  0
LINE
  5
3A8
100
AcDbEntity
  8
0
  6
CONTINUOUS
 62
         7
100
AcDbLine
 10
250.2789737427
 20
133.9883048857
 30
0.0
 11
250.2789737427
 21
133.4908589722
 31
0.0
  0
POLYLINE
  5
3A9
100
AcDbEntity
  8
0
  6
CONTINUOUS
 62
         7
100
AcDb2dPolyline
 66
         1
 10
0.0
 20
0.0
 30
0.0
 70
       128
  0
VERTEX
  5
3AA
100
AcDbEntity
  8
0
100
AcDbVertex
100
AcDb2dVertex
 10
250.6936872844
 20
134.6350897415
 30
0.0
  0
VERTEX
  5
3AB
100
AcDbEntity
  8
0
100
AcDbVertex
100
AcDb2dVertex
 10
250.5861063843
 20
134.6200599523
 30
0.0
  0
VERTEX
  5
3AC
100
AcDbEntity
  8
0
100
AcDbVertex
100
AcDb2dVertex
 10
250.4872034152
 20
134.5750808713
 30
0.0
  0
VERTEX
  5
3AD
100
AcDbEntity
  8
0
100
AcDbVertex
100
AcDb2dVertex
 10
250.4037733299
 20
134.5053729334
 30
0.0
  0
VERTEX
  5
3AE
100
AcDbEntity
  8
0
100
AcDbVertex
100
AcDb2dVertex
 10
250.3422394064
 20
134.4157392868
 30
0.0
  0
VERTEX
  5
3AF
100
AcDbEntity
  8
0
100
AcDbVertex
100
AcDb2dVertex
 10
250.2789737427
 20
133.9883048857
 30
0.0
  0
SEQEND
  5
3B0
100
AcDbEntity
  8
0
  0
POLYLINE
  5
3B1
100
AcDbEntity
  8
0
  6
CONTINUOUS
 62
         7
100
AcDb2dPolyline
 66
         1
 10
0.0
 20
0.0
 30
0.0
 70
       128
  0
VERTEX
  5
3B2
100
AcDbEntity
  8
0
100
AcDbVertex
100
AcDb2dVertex
 10
250.9969224606
 20
134.1842684274
 30
0.0
  0
VERTEX
  5
3B3
100
AcDbEntity
  8
0
100
AcDbVertex
100
AcDb2dVertex
 10
250.9548409951
 20
134.4920488816
 30
0.0
  0
VERTEX
  5
3B4
100
AcDbEntity
  8
0
100
AcDbVertex
100
AcDb2dVertex
 10
250.9081429979
 20
134.5545885701
 30
0.0
  0
VERTEX
  5
3B5
100
AcDbEntity
  8
0
100
AcDbVertex
100
AcDb2dVertex
 10
250.8449330703
 20
134.6005232019
 30
0.0
  0
VERTEX
  5
3B6
100
AcDbEntity
  8
0
100
AcDbVertex
100
AcDb2dVertex
 10
250.6936872844
 20
134.6350897415
 30
0.0
  0
SEQEND
  5
3B7
100
AcDbEntity
  8
0
  0
LINE
  5
3B8
100
AcDbEntity
  8
0
  6
CONTINUOUS
 62
         7
100
AcDbLine
 10
250.9969224606
 20
133.4908589722
 30
0.0
 11
250.9969224606
 21
134.1842684274
 31
0.0
  0
LINE
  5
3B9
100
AcDbEntity
  8
0
  6
CONTINUOUS
 62
         7
100
AcDbLine
 10
251.1539737427
 20
133.4908589722
 30
0.0
 11
250.9969224606
 21
133.4908589722
 31
0.0
  0
LINE
  5
3BA
100
AcDbEntity
  8
0
  6
CONTINUOUS
 62
         7
100
AcDbLine
 10
251.1539737427
 20
134.1835673056
 30
0.0
 11
251.1539737427
 21
133.4908589722
 31
0.0
  0
POLYLINE
  5
3BB
100
AcDbEntity
  8
0
  6
CONTINUOUS
 62
         7
100
AcDb2dPolyline
 66
         1
 10
0.0
 20
0.0
 30
0.0
 70
       128
  0
VERTEX
  5
3BC
100
AcDbEntity
  8
0
100
AcDbVertex
100
AcDb2dVertex
 10
250.7210310344
 20
134.7921410235
 30
0.0
  0
VERTEX
  5
3BD
100
AcDbEntity
  8
0
100
AcDbVertex
100
AcDb2dVertex
 10
250.8767157531
 20
134.7652273348
 30
0.0
  0
VERTEX
  5
3BE
100
AcDbEntity
  8
0
100
AcDbVertex
100
AcDb2dVertex
 10
251.0103168453
 20
134.6811934816
 30
0.0
  0
VERTEX
  5
3BF
100
AcDbEntity
  8
0
100
AcDbVertex
100
AcDb2dVertex
 10
251.100107057
 20
134.5513963699
 30
0.0
  0
VERTEX
  5
3C0
100
AcDbEntity
  8
0
100
AcDbVertex
100
AcDb2dVertex
 10
251.1539737427
 20
134.1835673056
 30
0.0
  0
SEQEND
  5
3C1
100
AcDbEntity
  8
0
  0
POLYLINE
  5
3C2
100
AcDbEntity
  8
0
  6
CONTINUOUS
 62
         7
100
AcDb2dPolyline
 66
         1
 10
0.0
 20
0.0
 30
0.0
 70
       128
  0
VERTEX
  5
3C3
100
AcDbEntity
  8
0
100
AcDbVertex
100
AcDb2dVertex
 10
250.2519805536
 20
134.4832968729
 30
0.0
  0
VERTEX
  5
3C4
100
AcDbEntity
  8
0
100
AcDbVertex
100
AcDb2dVertex
 10
250.34621048
 20
134.6187828419
 30
0.0
  0
VERTEX
  5
3C5
100
AcDbEntity
  8
0
100
AcDbVertex
100
AcDb2dVertex
 10
250.4734210253
 20
134.7235177844
 30
0.0
  0
VERTEX
  5
3C6
100
AcDbEntity
  8
0
100
AcDbVertex
100
AcDb2dVertex
 10
250.7210310344
 20
134.7921410235
 30
0.0
  0
SEQEND
  5
3C7
100
AcDbEntity
  8
0
  0
POLYLINE
  5
3C8
100
AcDbEntity
  8
0
  6
CONTINUOUS
 62
         7
100
AcDb2dPolyline
 66
         1
 10
0.0
 20
0.0
 30
0.0
 70
       128
  0
VERTEX
  5
3C9
100
AcDbEntity
  8
0
100
AcDbVertex
100
AcDb2dVertex
 10
249.8449793517
 20
134.7921410235
 30
0.0
  0
VERTEX
  5
3CA
100
AcDbEntity
  8
0
100
AcDbVertex
100
AcDb2dVertex
 10
249.9961721071
 20
134.7658607157
 30
0.0
  0
VERTEX
  5
3CB
100
AcDbEntity
  8
0
100
AcDbVertex
100
AcDb2dVertex
 10
250.1288567742
 20
134.6888795726
 30
0.0
  0
VERTEX
  5
3CC
100
AcDbEntity
  8
0
100
AcDbVertex
100
AcDb2dVertex
 10
250.2519805536
 20
134.4832968729
 30
0.0
  0
SEQEND
  5
3CD
100
AcDbEntity
  8
0
  0
POLYLINE
  5
3CE
100
AcDbEntity
  8
0
  6
CONTINUOUS
 62
         7
100
AcDb2dPolyline
 66
         1
 10
0.0
 20
0.0
 30
0.0
 70
       128
  0
VERTEX
  5
3CF
100
AcDbEntity
  8
0
100
AcDbVertex
100
AcDb2dVertex
 10
249.5813575568
 20
134.7272872575
 30
0.0
  0
VERTEX
  5
3D0
100
AcDbEntity
  8
0
100
AcDbVertex
100
AcDb2dVertex
 10
249.7252461495
 20
134.7795129499
 30
0.0
  0
VERTEX
  5
3D1
100
AcDbEntity
  8
0
100
AcDbVertex
100
AcDb2dVertex
 10
249.8449793517
 20
134.7921410235
 30
0.0
  0
SEQEND
  5
3D2
100
AcDbEntity
  8
0
  0
POLYLINE
  5
3D3
100
AcDbEntity
  8
0
  6
CONTINUOUS
 62
         7
100
AcDb2dPolyline
 66
         1
 10
0.0
 20
0.0
 30
0.0
 70
       128
  0
VERTEX
  5
3D4
100
AcDbEntity
  8
0
100
AcDbVertex
100
AcDb2dVertex
 10
249.4039737427
 20
134.5474495171
 30
0.0
  0
VERTEX
  5
3D5
100
AcDbEntity
  8
0
100
AcDbVertex
100
AcDb2dVertex
 10
249.4945891672
 20
134.6570215759
 30
0.0
  0
VERTEX
  5
3D6
100
AcDbEntity
  8
0
100
AcDbVertex
100
AcDb2dVertex
 10
249.5813575568
 20
134.7272872575
 30
0.0
  0
SEQEND
  5
3D7
100
AcDbEntity
  8
0
  0
LINE
  5
3D8
100
AcDbEntity
  8
0
  6
CONTINUOUS
 62
         7
100
AcDbLine
 10
249.4039737427
 20
134.7697051261
 30
0.0
 11
249.4039737427
 21
134.5474495171
 31
0.0
  0
LINE
  5
3D9
100
AcDbEntity
  8
0
  6
CONTINUOUS
 62
         7
100
AcDbLine
 10
249.2469224606
 20
134.7697051261
 30
0.0
 11
249.4039737427
 21
134.7697051261
 31
0.0
  0
LINE
  5
3DA
100
AcDbEntity
  8
0
  6
CONTINUOUS
 62
         7
100
AcDbLine
 10
249.2469224606
 20
133.4908589722
 30
0.0
 11
249.2469224606
 21
134.7697051261
 31
0.0
  0
POLYLINE
  5
3DB
100
AcDbEntity
  8
0
  6
CONTINUOUS
 62
         7
100
AcDb2dPolyline
 66
         1
 10
0.0
 20
0.0
 30
0.0
 70
       128
  0
VERTEX
  5
3DC
100
AcDbEntity
  8
0
100
AcDbVertex
100
AcDb2dVertex
 10
246.8911532299
 20
134.1267764402
 30
0.0
  0
VERTEX
  5
3DD
100
AcDbEntity
  8
0
100
AcDbVertex
100
AcDb2dVertex
 10
246.9462076678
 20
134.3982354063
 30
0.0
  0
VERTEX
  5
3DE
100
AcDbEntity
  8
0
100
AcDbVertex
100
AcDb2dVertex
 10
247.0664336786
 20
134.5804022415
 30
0.0
  0
SEQEND
  5
3DF
100
AcDbEntity
  8
0
  0
POLYLINE
  5
3E0
100
AcDbEntity
  8
0
  6
CONTINUOUS
 62
         7
100
AcDb2dPolyline
 66
         1
 10
0.0
 20
0.0
 30
0.0
 70
       128
  0
VERTEX
  5
3E1
100
AcDbEntity
  8
0
100
AcDbVertex
100
AcDb2dVertex
 10
247.553713326
 20
133.4684230748
 30
0.0
  0
VERTEX
  5
3E2
100
AcDbEntity
  8
0
100
AcDbVertex
100
AcDb2dVertex
 10
247.2699937731
 20
133.5257671713
 30
0.0
  0
VERTEX
  5
3E3
100
AcDbEntity
  8
0
100
AcDbVertex
100
AcDb2dVertex
 10
247.0425234764
 20
133.7041471591
 30
0.0
  0
VERTEX
  5
3E4
100
AcDbEntity
  8
0
100
AcDbVertex
100
AcDb2dVertex
 10
246.9289577522
 20
133.9018968992
 30
0.0
  0
VERTEX
  5
3E5
100
AcDbEntity
  8
0
100
AcDbVertex
100
AcDb2dVertex
 10
246.8911532299
 20
134.1267764402
 30
0.0
  0
SEQEND
  5
3E6
100
AcDbEntity
  8
0
  0
POLYLINE
  5
3E7
100
AcDbEntity
  8
0
  6
CONTINUOUS
 62
         7
100
AcDb2dPolyline
 66
         1
 10
0.0
 20
0.0
 30
0.0
 70
       128
  0
VERTEX
  5
3E8
100
AcDbEntity
  8
0
100
AcDbVertex
100
AcDb2dVertex
 10
248.2148711786
 20
134.1267764402
 30
0.0
  0
VERTEX
  5
3E9
100
AcDbEntity
  8
0
100
AcDbVertex
100
AcDb2dVertex
 10
248.1532468835
 20
133.8445290007
 30
0.0
  0
VERTEX
  5
3EA
100
AcDbEntity
  8
0
100
AcDbVertex
100
AcDb2dVertex
 10
247.9768440077
 20
133.6153006459
 30
0.0
  0
VERTEX
  5
3EB
100
AcDbEntity
  8
0
100
AcDbVertex
100
AcDb2dVertex
 10
247.7789560931
 20
133.5030483455
 30
0.0
  0
VERTEX
  5
3EC
100
AcDbEntity
  8
0
100
AcDbVertex
100
AcDb2dVertex
 10
247.553713326
 20
133.4684230748
 30
0.0
  0
SEQEND
  5
3ED
100
AcDbEntity
  8
0
  0
POLYLINE
  5
3EE
100
AcDbEntity
  8
0
  6
CONTINUOUS
 62
         7
100
AcDb2dPolyline
 66
         1
 10
0.0
 20
0.0
 30
0.0
 70
       128
  0
VERTEX
  5
3EF
100
AcDbEntity
  8
0
100
AcDbVertex
100
AcDb2dVertex
 10
248.0395907299
 20
134.5814539242
 30
0.0
  0
VERTEX
  5
3F0
100
AcDbEntity
  8
0
100
AcDbVertex
100
AcDb2dVertex
 10
248.181387036
 20
134.3429235341
 30
0.0
  0
VERTEX
  5
3F1
100
AcDbEntity
  8
0
100
AcDbVertex
100
AcDb2dVertex
 10
248.2148711786
 20
134.1267764402
 30
0.0
  0
SEQEND
  5
3F2
100
AcDbEntity
  8
0
  0
POLYLINE
  5
3F3
100
AcDbEntity
  8
0
  6
CONTINUOUS
 62
         7
100
AcDb2dPolyline
 66
         1
 10
0.0
 20
0.0
 30
0.0
 70
       128
  0
VERTEX
  5
3F4
100
AcDbEntity
  8
0
100
AcDbVertex
100
AcDb2dVertex
 10
247.553713326
 20
134.7921410235
 30
0.0
  0
VERTEX
  5
3F5
100
AcDbEntity
  8
0
100
AcDbVertex
100
AcDb2dVertex
 10
247.8496814579
 20
134.7265323454
 30
0.0
  0
VERTEX
  5
3F6
100
AcDbEntity
  8
0
100
AcDbVertex
100
AcDb2dVertex
 10
248.0395907299
 20
134.5814539242
 30
0.0
  0
SEQEND
  5
3F7
100
AcDbEntity
  8
0
  0
POLYLINE
  5
3F8
100
AcDbEntity
  8
0
  6
CONTINUOUS
 62
         7
100
AcDb2dPolyline
 66
         1
 10
0.0
 20
0.0
 30
0.0
 70
       128
  0
VERTEX
  5
3F9
100
AcDbEntity
  8
0
100
AcDbVertex
100
AcDb2dVertex
 10
247.0664336786
 20
134.5804022415
 30
0.0
  0
VERTEX
  5
3FA
100
AcDbEntity
  8
0
100
AcDbVertex
100
AcDb2dVertex
 10
247.3171760098
 20
134.7521668738
 30
0.0
  0
VERTEX
  5
3FB
100
AcDbEntity
  8
0
100
AcDbVertex
100
AcDb2dVertex
 10
247.553713326
 20
134.7921410235
 30
0.0
  0
SEQEND
  5
3FC
100
AcDbEntity
  8
0
  0
LINE
  5
3FD
100
AcDbEntity
  8
0
  6
CONTINUOUS
 62
         7
100
AcDbLine
 10
245.0163535504
 20
133.0197051261
 30
0.0
 11
245.2768202972
 21
133.5998834113
 31
0.0
  0
LINE
  5
3FE
100
AcDbEntity
  8
0
  6
CONTINUOUS
 62
         7
100
AcDbLine
 10
245.1860250247
 20
133.0197051261
 30
0.0
 11
245.0163535504
 21
133.0197051261
 31
0.0
  0
LINE
  5
3FF
100
AcDbEntity
  8
0
  6
CONTINUOUS
 62
         7
100
AcDbLine
 10
245.971281435
 20
134.7697051261
 30
0.0
 11
245.1860250247
 21
133.0197051261
 31
0.0
  0
LINE
  5
400
100
AcDbEntity
  8
0
  6
CONTINUOUS
 62
         7
100
AcDbLine
 10
245.8016099606
 20
134.7697051261
 30
0.0
 11
245.971281435
 21
134.7697051261
 31
0.0
  0
LINE
  5
401
100
AcDbEntity
  8
0
  6
CONTINUOUS
 62
         7
100
AcDbLine
 10
245.3620065953
 20
133.7902379786
 30
0.0
 11
245.8016099606
 21
134.7697051261
 31
0.0
  0
LINE
  5
402
100
AcDbEntity
  8
0
  6
CONTINUOUS
 62
         7
100
AcDbLine
 10
244.9290638869
 20
134.7697051261
 30
0.0
 11
245.3620065953
 21
133.7902379786
 31
0.0
  0
LINE
  5
403
100
AcDbEntity
  8
0
  6
CONTINUOUS
 62
         7
100
AcDbLine
 10
244.7597429735
 20
134.7697051261
 30
0.0
 11
244.9290638869
 21
134.7697051261
 31
0.0
  0
LINE
  5
404
100
AcDbEntity
  8
0
  6
CONTINUOUS
 62
         7
100
AcDbLine
 10
245.2768202972
 20
133.5998834113
 30
0.0
 11
244.7597429735
 21
134.7697051261
 31
0.0
  0
POLYLINE
  5
405
100
AcDbEntity
  8
0
  6
CONTINUOUS
 62
         7
100
AcDb2dPolyline
 66
         1
 10
0.0
 20
0.0
 30
0.0
 70
       128
  0
VERTEX
  5
406
100
AcDbEntity
  8
0
100
AcDbVertex
100
AcDb2dVertex
 10
242.7629481017
 20
134.1267764402
 30
0.0
  0
VERTEX
  5
407
100
AcDbEntity
  8
0
100
AcDbVertex
100
AcDb2dVertex
 10
242.8180025396
 20
134.3982354063
 30
0.0
  0
VERTEX
  5
408
100
AcDbEntity
  8
0
100
AcDbVertex
100
AcDb2dVertex
 10
242.9382285504
 20
134.5804022415
 30
0.0
  0
SEQEND
  5
409
100
AcDbEntity
  8
0
  0
POLYLINE
  5
40A
100
AcDbEntity
  8
0
  6
CONTINUOUS
 62
         7
100
AcDb2dPolyline
 66
         1
 10
0.0
 20
0.0
 30
0.0
 70
       128
  0
VERTEX
  5
40B
100
AcDbEntity
  8
0
100
AcDbVertex
100
AcDb2dVertex
 10
243.4255081978
 20
133.4684230748
 30
0.0
  0
VERTEX
  5
40C
100
AcDbEntity
  8
0
100
AcDbVertex
100
AcDb2dVertex
 10
243.1417886449
 20
133.5257671713
 30
0.0
  0
VERTEX
  5
40D
100
AcDbEntity
  8
0
100
AcDbVertex
100
AcDb2dVertex
 10
242.9143183482
 20
133.7041471591
 30
0.0
  0
VERTEX
  5
40E
100
AcDbEntity
  8
0
100
AcDbVertex
100
AcDb2dVertex
 10
242.800752624
 20
133.9018968992
 30
0.0
  0
VERTEX
  5
40F
100
AcDbEntity
  8
0
100
AcDbVertex
100
AcDb2dVertex
 10
242.7629481017
 20
134.1267764402
 30
0.0
  0
SEQEND
  5
410
100
AcDbEntity
  8
0
  0
POLYLINE
  5
411
100
AcDbEntity
  8
0
  6
CONTINUOUS
 62
         7
100
AcDb2dPolyline
 66
         1
 10
0.0
 20
0.0
 30
0.0
 70
       128
  0
VERTEX
  5
412
100
AcDbEntity
  8
0
100
AcDbVertex
100
AcDb2dVertex
 10
244.0866660504
 20
134.1267764402
 30
0.0
  0
VERTEX
  5
413
100
AcDbEntity
  8
0
100
AcDbVertex
100
AcDb2dVertex
 10
244.0250417553
 20
133.8445290007
 30
0.0
  0
VERTEX
  5
414
100
AcDbEntity
  8
0
100
AcDbVertex
100
AcDb2dVertex
 10
243.8486388795
 20
133.6153006459
 30
0.0
  0
VERTEX
  5
415
100
AcDbEntity
  8
0
100
AcDbVertex
100
AcDb2dVertex
 10
243.6507509649
 20
133.5030483455
 30
0.0
  0
VERTEX
  5
416
100
AcDbEntity
  8
0
100
AcDbVertex
100
AcDb2dVertex
 10
243.4255081978
 20
133.4684230748
 30
0.0
  0
SEQEND
  5
417
100
AcDbEntity
  8
0
  0
POLYLINE
  5
418
100
AcDbEntity
  8
0
  6
CONTINUOUS
 62
         7
100
AcDb2dPolyline
 66
         1
 10
0.0
 20
0.0
 30
0.0
 70
       128
  0
VERTEX
  5
419
100
AcDbEntity
  8
0
100
AcDbVertex
100
AcDb2dVertex
 10
243.9113856017
 20
134.5814539242
 30
0.0
  0
VERTEX
  5
41A
100
AcDbEntity
  8
0
100
AcDbVertex
100
AcDb2dVertex
 10
244.0531819078
 20
134.3429235341
 30
0.0
  0
VERTEX
  5
41B
100
AcDbEntity
  8
0
100
AcDbVertex
100
AcDb2dVertex
 10
244.0866660504
 20
134.1267764402
 30
0.0
  0
SEQEND
  5
41C
100
AcDbEntity
  8
0
  0
POLYLINE
  5
41D
100
AcDbEntity
  8
0
  6
CONTINUOUS
 62
         7
100
AcDb2dPolyline
 66
         1
 10
0.0
 20
0.0
 30
0.0
 70
       128
  0
VERTEX
  5
41E
100
AcDbEntity
  8
0
100
AcDbVertex
100
AcDb2dVertex
 10
243.4255081978
 20
134.7921410235
 30
0.0
  0
VERTEX
  5
41F
100
AcDbEntity
  8
0
100
AcDbVertex
100
AcDb2dVertex
 10
243.7214763297
 20
134.7265323454
 30
0.0
  0
VERTEX
  5
420
100
AcDbEntity
  8
0
100
AcDbVertex
100
AcDb2dVertex
 10
243.9113856017
 20
134.5814539242
 30
0.0
  0
SEQEND
  5
421
100
AcDbEntity
  8
0
  0
POLYLINE
  5
422
100
AcDbEntity
  8
0
  6
CONTINUOUS
 62
         7
100
AcDb2dPolyline
 66
         1
 10
0.0
 20
0.0
 30
0.0
 70
       128
  0
VERTEX
  5
423
100
AcDbEntity
  8
0
100
AcDbVertex
100
AcDb2dVertex
 10
242.9382285504
 20
134.5804022415
 30
0.0
  0
VERTEX
  5
424
100
AcDbEntity
  8
0
100
AcDbVertex
100
AcDb2dVertex
 10
243.1889708816
 20
134.7521668738
 30
0.0
  0
VERTEX
  5
425
100
AcDbEntity
  8
0
100
AcDbVertex
100
AcDb2dVertex
 10
243.4255081978
 20
134.7921410235
 30
0.0
  0
SEQEND
  5
426
100
AcDbEntity
  8
0
  0
LINE
  5
427
100
AcDbEntity
  8
0
  6
CONTINUOUS
 62
         7
100
AcDbLine
 10
256.9922260098
 20
145.7635765934
 30
0.0
 11
236.7422260098
 21
134.0722336423
 31
0.0
  0
LINE
  5
428
100
AcDbEntity
  8
0
  6
CONTINUOUS
 62
         7
100
AcDbLine
 10
256.9922260098
 20
122.3808906912
 30
0.0
 11
256.9922260098
 21
145.7635765934
 31
0.0
  0
LINE
  5
429
100
AcDbEntity
  8
0
  6
CONTINUOUS
 62
         7
100
AcDbLine
 10
236.7422260098
 20
134.0722336423
 30
0.0
 11
256.9922260098
 21
122.3808906912
 31
0.0
  0
LINE
  5
42A
100
AcDbEntity
  8
0
  6
CONTINUOUS
 62
         7
100
AcDbLine
 10
241.3046147683
 20
133.0197051261
 30
0.0
 11
241.1475634863
 21
133.0197051261
 31
0.0
  0
LINE
  5
42B
100
AcDbEntity
  8
0
  6
CONTINUOUS
 62
         7
100
AcDbLine
 10
241.3046147683
 20
133.7225797254
 30
0.0
 11
241.3046147683
 21
133.0197051261
 31
0.0
  0
POLYLINE
  5
42C
100
AcDbEntity
  8
0
  6
CONTINUOUS
 62
         7
100
AcDb2dPolyline
 66
         1
 10
0.0
 20
0.0
 30
0.0
 70
       128
  0
VERTEX
  5
42D
100
AcDbEntity
  8
0
100
AcDbVertex
100
AcDb2dVertex
 10
241.8262493837
 20
133.4684230748
 30
0.0
  0
VERTEX
  5
42E
100
AcDbEntity
  8
0
100
AcDbVertex
100
AcDb2dVertex
 10
241.504172525
 20
133.5513559889
 30
0.0
  0
VERTEX
  5
42F
100
AcDbEntity
  8
0
100
AcDbVertex
100
AcDb2dVertex
 10
241.3046147683
 20
133.7225797254
 30
0.0
  0
SEQEND
  5
430
100
AcDbEntity
  8
0
  0
POLYLINE
  5
431
100
AcDbEntity
  8
0
  6
CONTINUOUS
 62
         7
100
AcDb2dPolyline
 66
         1
 10
0.0
 20
0.0
 30
0.0
 70
       128
  0
VERTEX
  5
432
100
AcDbEntity
  8
0
100
AcDbVertex
100
AcDb2dVertex
 10
242.4937173324
 20
134.1337876581
 30
0.0
  0
VERTEX
  5
433
100
AcDbEntity
  8
0
100
AcDbVertex
100
AcDb2dVertex
 10
242.4324170097
 20
133.8489903138
 30
0.0
  0
VERTEX
  5
434
100
AcDbEntity
  8
0
100
AcDbVertex
100
AcDb2dVertex
 10
242.2519629372
 20
133.6200339253
 30
0.0
  0
VERTEX
  5
435
100
AcDbEntity
  8
0
100
AcDbVertex
100
AcDb2dVertex
 10
242.052953057
 20
133.5055908117
 30
0.0
  0
VERTEX
  5
436
100
AcDbEntity
  8
0
100
AcDbVertex
100
AcDb2dVertex
 10
241.8262493837
 20
133.4684230748
 30
0.0
  0
SEQEND
  5
437
100
AcDbEntity
  8
0
  0
POLYLINE
  5
438
100
AcDbEntity
  8
0
  6
CONTINUOUS
 62
         7
100
AcDb2dPolyline
 66
         1
 10
0.0
 20
0.0
 30
0.0
 70
       128
  0
VERTEX
  5
439
100
AcDbEntity
  8
0
100
AcDbVertex
100
AcDb2dVertex
 10
241.8213415312
 20
134.7921410235
 30
0.0
  0
VERTEX
  5
43A
100
AcDbEntity
  8
0
100
AcDbVertex
100
AcDb2dVertex
 10
242.1058010056
 20
134.7322210872
 30
0.0
  0
VERTEX
  5
43B
100
AcDbEntity
  8
0
100
AcDbVertex
100
AcDb2dVertex
 10
242.337165636
 20
134.555909719
 30
0.0
  0
VERTEX
  5
43C
100
AcDbEntity
  8
0
100
AcDbVertex
100
AcDb2dVertex
 10
242.4548948398
 20
134.3594951271
 30
0.0
  0
VERTEX
  5
43D
100
AcDbEntity
  8
0
100
AcDbVertex
100
AcDb2dVertex
 10
242.4937173324
 20
134.1337876581
 30
0.0
  0
SEQEND
  5
43E
100
AcDbEntity
  8
0
  0
POLYLINE
  5
43F
100
AcDbEntity
  8
0
  6
CONTINUOUS
 62
         7
100
AcDb2dPolyline
 66
         1
 10
0.0
 20
0.0
 30
0.0
 70
       128
  0
VERTEX
  5
440
100
AcDbEntity
  8
0
100
AcDbVertex
100
AcDb2dVertex
 10
241.3046147683
 20
134.5330765203
 30
0.0
  0
VERTEX
  5
441
100
AcDbEntity
  8
0
100
AcDbVertex
100
AcDb2dVertex
 10
241.5626809827
 20
134.7433272735
 30
0.0
  0
VERTEX
  5
442
100
AcDbEntity
  8
0
100
AcDbVertex
100
AcDb2dVertex
 10
241.8213415312
 20
134.7921410235
 30
0.0
  0
SEQEND
  5
443
100
AcDbEntity
  8
0
  0
LINE
  5
444
100
AcDbEntity
  8
0
  6
CONTINUOUS
 62
         7
100
AcDbLine
 10
241.3046147683
 20
134.7697051261
 30
0.0
 11
241.3046147683
 21
134.5330765203
 31
0.0
  0
LINE
  5
445
100
AcDbEntity
  8
0
  6
CONTINUOUS
 62
         7
100
AcDbLine
 10
241.1475634863
 20
134.7697051261
 30
0.0
 11
241.3046147683
 21
134.7697051261
 31
0.0
  0
LINE
  5
446
100
AcDbEntity
  8
0
  6
CONTINUOUS
 62
         7
100
AcDbLine
 10
241.1475634863
 20
133.0197051261
 30
0.0
 11
241.1475634863
 21
134.7697051261
 31
0.0
  0
LINE
  5
447
100
AcDbEntity
  8
0
  6
CONTINUOUS
 62
         7
100
AcDbLine
 10
244.5353839991
 20
133.4908589722
 30
0.0
 11
244.3783327171
 21
133.4908589722
 31
0.0
  0
LINE
  5
448
100
AcDbEntity
  8
0
  6
CONTINUOUS
 62
         7
100
AcDbLine
 10
244.5353839991
 20
135.2857307671
 30
0.0
 11
244.5353839991
 21
133.4908589722
 31
0.0
  0
LINE
  5
449
100
AcDbEntity
  8
0
  6
CONTINUOUS
 62
         7
100
AcDbLine
 10
244.3783327171
 20
135.2857307671
 30
0.0
 11
244.5353839991
 21
135.2857307671
 31
0.0
  0
LINE
  5
44A
100
AcDbEntity
  8
0
  6
CONTINUOUS
 62
         7
100
AcDbLine
 10
244.3783327171
 20
133.4908589722
 30
0.0
 11
244.3783327171
 21
135.2857307671
 31
0.0
  0
POLYLINE
  5
44B
100
AcDbEntity
  8
0
  6
CONTINUOUS
 62
         7
100
AcDb2dPolyline
 66
         1
 10
0.0
 20
0.0
 30
0.0
 70
       128
  0
VERTEX
  5
44C
100
AcDbEntity
  8
0
100
AcDbVertex
100
AcDb2dVertex
 10
246.2629481017
 20
134.9740821293
 30
0.0
  0
VERTEX
  5
44D
100
AcDbEntity
  8
0
100
AcDbVertex
100
AcDb2dVertex
 10
246.2714087193
 20
135.1101677651
 30
0.0
  0
VERTEX
  5
44E
100
AcDbEntity
  8
0
100
AcDbVertex
100
AcDb2dVertex
 10
246.3258274395
 20
135.2329481344
 30
0.0
  0
VERTEX
  5
44F
100
AcDbEntity
  8
0
100
AcDbVertex
100
AcDb2dVertex
 10
246.4148665089
 20
135.2911107996
 30
0.0
  0
VERTEX
  5
450
100
AcDbEntity
  8
0
100
AcDbVertex
100
AcDb2dVertex
 10
246.5202598004
 20
135.3081666645
 30
0.0
  0
SEQEND
  5
451
100
AcDbEntity
  8
0
  0
LINE
  5
452
100
AcDbEntity
  8
0
  6
CONTINUOUS
 62
         7
100
AcDbLine
 10
246.2629481017
 20
134.7697051261
 30
0.0
 11
246.2629481017
 21
134.9740821293
 31
0.0
  0
LINE
  5
453
100
AcDbEntity
  8
0
  6
CONTINUOUS
 62
         7
100
AcDbLine
 10
246.0834609222
 20
134.7697051261
 30
0.0
 11
246.2629481017
 21
134.7697051261
 31
0.0
  0
LINE
  5
454
100
AcDbEntity
  8
0
  6
CONTINUOUS
 62
         7
100
AcDbLine
 10
246.0834609222
 20
134.612653844
 30
0.0
 11
246.0834609222
 21
134.7697051261
 31
0.0
  0
LINE
  5
455
100
AcDbEntity
  8
0
  6
CONTINUOUS
 62
         7
100
AcDbLine
 10
246.2629481017
 20
134.612653844
 30
0.0
 11
246.0834609222
 21
134.612653844
 31
0.0
  0
LINE
  5
456
100
AcDbEntity
  8
0
  6
CONTINUOUS
 62
         7
100
AcDbLine
 10
246.2629481017
 20
133.4908589722
 30
0.0
 11
246.2629481017
 21
134.612653844
 31
0.0
  0
LINE
  5
457
100
AcDbEntity
  8
0
  6
CONTINUOUS
 62
         7
100
AcDbLine
 10
246.4199993837
 20
133.4908589722
 30
0.0
 11
246.2629481017
 21
133.4908589722
 31
0.0
  0
LINE
  5
458
100
AcDbEntity
  8
0
  6
CONTINUOUS
 62
         7
100
AcDbLine
 10
246.4207005055
 20
134.612653844
 30
0.0
 11
246.4199993837
 21
133.4908589722
 31
0.0
  0
LINE
  5
459
100
AcDbEntity
  8
0
  6
CONTINUOUS
 62
         7
100
AcDbLine
 10
246.6892301529
 20
134.612653844
 30
0.0
 11
246.4207005055
 21
134.612653844
 31
0.0
  0
LINE
  5
45A
100
AcDbEntity
  8
0
  6
CONTINUOUS
 62
         7
100
AcDbLine
 10
246.6892301529
 20
134.7697051261
 30
0.0
 11
246.6892301529
 21
134.612653844
 31
0.0
  0
LINE
  5
45B
100
AcDbEntity
  8
0
  6
CONTINUOUS
 62
         7
100
AcDbLine
 10
246.4210510664
 20
134.7697051261
 30
0.0
 11
246.6892301529
 21
134.7697051261
 31
0.0
  0
LINE
  5
45C
100
AcDbEntity
  8
0
  6
CONTINUOUS
 62
         7
100
AcDbLine
 10
246.4210510664
 20
134.9470889402
 30
0.0
 11
246.4210510664
 21
134.7697051261
 31
0.0
  0
POLYLINE
  5
45D
100
AcDbEntity
  8
0
  6
CONTINUOUS
 62
         7
100
AcDb2dPolyline
 66
         1
 10
0.0
 20
0.0
 30
0.0
 70
       128
  0
VERTEX
  5
45E
100
AcDbEntity
  8
0
100
AcDbVertex
100
AcDb2dVertex
 10
246.5525114029
 20
135.1511153825
 30
0.0
  0
VERTEX
  5
45F
100
AcDbEntity
  8
0
100
AcDbVertex
100
AcDb2dVertex
 10
246.4825816426
 20
135.1375420954
 30
0.0
  0
VERTEX
  5
460
100
AcDbEntity
  8
0
100
AcDbVertex
100
AcDb2dVertex
 10
246.4525964388
 20
135.1180205988
 30
0.0
  0
VERTEX
  5
461
100
AcDbEntity
  8
0
100
AcDbVertex
100
AcDb2dVertex
 10
246.4311346377
 20
135.0897039938
 30
0.0
  0
VERTEX
  5
462
100
AcDbEntity
  8
0
100
AcDbVertex
100
AcDb2dVertex
 10
246.4210510664
 20
134.9470889402
 30
0.0
  0
SEQEND
  5
463
100
AcDbEntity
  8
0
  0
POLYLINE
  5
464
100
AcDbEntity
  8
0
  6
CONTINUOUS
 62
         7
100
AcDb2dPolyline
 66
         1
 10
0.0
 20
0.0
 30
0.0
 70
       128
  0
VERTEX
  5
465
100
AcDbEntity
  8
0
100
AcDbVertex
100
AcDb2dVertex
 10
246.7116660504
 20
135.111852562
 30
0.0
  0
VERTEX
  5
466
100
AcDbEntity
  8
0
100
AcDbVertex
100
AcDb2dVertex
 10
246.6243106923
 20
135.1415770532
 30
0.0
  0
VERTEX
  5
467
100
AcDbEntity
  8
0
100
AcDbVertex
100
AcDb2dVertex
 10
246.5525114029
 20
135.1511153825
 30
0.0
  0
SEQEND
  5
468
100
AcDbEntity
  8
0
  0
LINE
  5
469
100
AcDbEntity
  8
0
  6
CONTINUOUS
 62
         7
100
AcDbLine
 10
246.7116660504
 20
135.2752139402
 30
0.0
 11
246.7116660504
 21
135.111852562
 31
0.0
  0
POLYLINE
  5
46A
100
AcDbEntity
  8
0
  6
CONTINUOUS
 62
         7
100
AcDb2dPolyline
 66
         1
 10
0.0
 20
0.0
 30
0.0
 70
       128
  0
VERTEX
  5
46B
100
AcDbEntity
  8
0
100
AcDbVertex
100
AcDb2dVertex
 10
246.5202598004
 20
135.3081666645
 30
0.0
  0
VERTEX
  5
46C
100
AcDbEntity
  8
0
100
AcDbVertex
100
AcDb2dVertex
 10
246.6285737358
 20
135.2962518436
 30
0.0
  0
VERTEX
  5
46D
100
AcDbEntity
  8
0
100
AcDbVertex
100
AcDb2dVertex
 10
246.7116660504
 20
135.2752139402
 30
0.0
  0
SEQEND
  5
46E
100
AcDbEntity
  8
0
  0
LINE
  5
46F
100
AcDbEntity
  8
0
  6
CONTINUOUS
 62
         7
100
AcDbLine
 10
248.6411532299
 20
133.4908589722
 30
0.0
 11
248.4841019478
 21
133.4908589722
 31
0.0
  0
LINE
  5
470
100
AcDbEntity
  8
0
  6
CONTINUOUS
 62
         7
100
AcDbLine
 10
248.6411532299
 20
133.9206466325
 30
0.0
 11
248.6411532299
 21
133.4908589722
 31
0.0
  0
POLYLINE
  5
471
100
AcDbEntity
  8
0
  6
CONTINUOUS
 62
         7
100
AcDb2dPolyline
 66
         1
 10
0.0
 20
0.0
 30
0.0
 70
       128
  0
VERTEX
  5
472
100
AcDbEntity
  8
0
100
AcDbVertex
100
AcDb2dVertex
 10
248.6691981017
 20
134.3595488761
 30
0.0
  0
VERTEX
  5
473
100
AcDbEntity
  8
0
100
AcDbVertex
100
AcDb2dVertex
 10
248.6441308128
 20
134.1144736372
 30
0.0
  0
VERTEX
  5
474
100
AcDbEntity
  8
0
100
AcDbVertex
100
AcDb2dVertex
 10
248.6411532299
 20
133.9206466325
 30
0.0
  0
SEQEND
  5
475
100
AcDbEntity
  8
0
  0
POLYLINE
  5
476
100
AcDbEntity
  8
0
  6
CONTINUOUS
 62
         7
100
AcDb2dPolyline
 66
         1
 10
0.0
 20
0.0
 30
0.0
 70
       128
  0
VERTEX
  5
477
100
AcDbEntity
  8
0
100
AcDbVertex
100
AcDb2dVertex
 10
248.9233547523
 20
134.6350897415
 30
0.0
  0
VERTEX
  5
478
100
AcDbEntity
  8
0
100
AcDbVertex
100
AcDb2dVertex
 10
248.8176284984
 20
134.6006798561
 30
0.0
  0
VERTEX
  5
479
100
AcDbEntity
  8
0
100
AcDbVertex
100
AcDb2dVertex
 10
248.7381118685
 20
134.5217741258
 30
0.0
  0
VERTEX
  5
47A
100
AcDbEntity
  8
0
100
AcDbVertex
100
AcDb2dVertex
 10
248.6691981017
 20
134.3595488761
 30
0.0
  0
SEQEND
  5
47B
100
AcDbEntity
  8
0
  0
POLYLINE
  5
47C
100
AcDbEntity
  8
0
  6
CONTINUOUS
 62
         7
100
AcDb2dPolyline
 66
         1
 10
0.0
 20
0.0
 30
0.0
 70
       128
  0
VERTEX
  5
47D
100
AcDbEntity
  8
0
100
AcDbVertex
100
AcDb2dVertex
 10
249.0036331978
 20
134.6123032831
 30
0.0
  0
VERTEX
  5
47E
100
AcDbEntity
  8
0
100
AcDbVertex
100
AcDb2dVertex
 10
248.9598316729
 20
134.6294753668
 30
0.0
  0
VERTEX
  5
47F
100
AcDbEntity
  8
0
100
AcDbVertex
100
AcDb2dVertex
 10
248.9233547523
 20
134.6350897415
 30
0.0
  0
SEQEND
  5
480
100
AcDbEntity
  8
0
  0
LINE
  5
481
100
AcDbEntity
  8
0
  6
CONTINUOUS
 62
         7
100
AcDbLine
 10
249.0898711786
 20
134.7483209113
 30
0.0
 11
249.0036331978
 21
134.6123032831
 31
0.0
  0
POLYLINE
  5
482
100
AcDbEntity
  8
0
  6
CONTINUOUS
 62
         7
100
AcDb2dPolyline
 66
         1
 10
0.0
 20
0.0
 30
0.0
 70
       128
  0
VERTEX
  5
483
100
AcDbEntity
  8
0
100
AcDbVertex
100
AcDb2dVertex
 10
248.9531524286
 20
134.7921410235
 30
0.0
  0
VERTEX
  5
484
100
AcDbEntity
  8
0
100
AcDbVertex
100
AcDb2dVertex
 10
249.0326717934
 20
134.7766828273
 30
0.0
  0
VERTEX
  5
485
100
AcDbEntity
  8
0
100
AcDbVertex
100
AcDb2dVertex
 10
249.0898711786
 20
134.7483209113
 30
0.0
  0
SEQEND
  5
486
100
AcDbEntity
  8
0
  0
POLYLINE
  5
487
100
AcDbEntity
  8
0
  6
CONTINUOUS
 62
         7
100
AcDb2dPolyline
 66
         1
 10
0.0
 20
0.0
 30
0.0
 70
       128
  0
VERTEX
  5
488
100
AcDbEntity
  8
0
100
AcDbVertex
100
AcDb2dVertex
 10
248.6411532299
 20
134.5814539242
 30
0.0
  0
VERTEX
  5
489
100
AcDbEntity
  8
0
100
AcDbVertex
100
AcDb2dVertex
 10
248.7896115478
 20
134.7422462151
 30
0.0
  0
VERTEX
  5
48A
100
AcDbEntity
  8
0
100
AcDbVertex
100
AcDb2dVertex
 10
248.8677690816
 20
134.779154046
 30
0.0
  0
VERTEX
  5
48B
100
AcDbEntity
  8
0
100
AcDbVertex
100
AcDb2dVertex
 10
248.9531524286
 20
134.7921410235
 30
0.0
  0
SEQEND
  5
48C
100
AcDbEntity
  8
0
  0
LINE
  5
48D
100
AcDbEntity
  8
0
  6
CONTINUOUS
 62
         7
100
AcDbLine
 10
248.6411532299
 20
134.7697051261
 30
0.0
 11
248.6411532299
 21
134.5814539242
 31
0.0
  0
LINE
  5
48E
100
AcDbEntity
  8
0
  6
CONTINUOUS
 62
         7
100
AcDbLine
 10
248.4841019478
 20
134.7697051261
 30
0.0
 11
248.6411532299
 21
134.7697051261
 31
0.0
  0
LINE
  5
48F
100
AcDbEntity
  8
0
  6
CONTINUOUS
 62
         7
100
AcDbLine
 10
248.4841019478
 20
133.4908589722
 30
0.0
 11
248.4841019478
 21
134.7697051261
 31
0.0
  0
POLYLINE
  5
490
100
AcDbEntity
  8
0
  6
CONTINUOUS
 62
         7
100
AcDb2dPolyline
 66
         1
 10
0.0
 20
0.0
 30
0.0
 70
       128
  0
VERTEX
  5
491
100
AcDbEntity
  8
0
100
AcDbVertex
100
AcDb2dVertex
 10
251.6251275888
 20
134.096628203
 30
0.0
  0
VERTEX
  5
492
100
AcDbEntity
  8
0
100
AcDbVertex
100
AcDb2dVertex
 10
251.6674879826
 20
133.895261453
 30
0.0
  0
VERTEX
  5
493
100
AcDbEntity
  8
0
100
AcDbVertex
100
AcDb2dVertex
 10
251.7913076391
 20
133.7314316351
 30
0.0
  0
VERTEX
  5
494
100
AcDbEntity
  8
0
100
AcDbVertex
100
AcDb2dVertex
 10
251.9316861606
 20
133.6509288406
 30
0.0
  0
VERTEX
  5
495
100
AcDbEntity
  8
0
100
AcDbVertex
100
AcDb2dVertex
 10
252.0917241433
 20
133.6254743568
 30
0.0
  0
SEQEND
  5
496
100
AcDbEntity
  8
0
  0
LINE
  5
497
100
AcDbEntity
  8
0
  6
CONTINUOUS
 62
         7
100
AcDbLine
 10
252.7693583581
 20
134.096628203
 30
0.0
 11
251.6251275888
 21
134.096628203
 31
0.0
  0
POLYLINE
  5
498
100
AcDbEntity
  8
0
  6
CONTINUOUS
 62
         7
100
AcDb2dPolyline
 66
         1
 10
0.0
 20
0.0
 30
0.0
 70
       128
  0
VERTEX
  5
499
100
AcDbEntity
  8
0
100
AcDbVertex
100
AcDb2dVertex
 10
252.6301856818
 20
134.5404382992
 30
0.0
  0
VERTEX
  5
49A
100
AcDbEntity
  8
0
100
AcDbVertex
100
AcDb2dVertex
 10
252.7440050789
 20
134.3029358506
 30
0.0
  0
VERTEX
  5
49B
100
AcDbEntity
  8
0
100
AcDbVertex
100
AcDb2dVertex
 10
252.7693583581
 20
134.096628203
 30
0.0
  0
SEQEND
  5
49C
100
AcDbEntity
  8
0
  0
POLYLINE
  5
49D
100
AcDbEntity
  8
0
  6
CONTINUOUS
 62
         7
100
AcDb2dPolyline
 66
         1
 10
0.0
 20
0.0
 30
0.0
 70
       128
  0
VERTEX
  5
49E
100
AcDbEntity
  8
0
100
AcDbVertex
100
AcDb2dVertex
 10
252.1152117235
 20
134.7921410235
 30
0.0
  0
VERTEX
  5
49F
100
AcDbEntity
  8
0
100
AcDbVertex
100
AcDb2dVertex
 10
252.435594213
 20
134.713412954
 30
0.0
  0
VERTEX
  5
4A0
100
AcDbEntity
  8
0
100
AcDbVertex
100
AcDb2dVertex
 10
252.6301856818
 20
134.5404382992
 30
0.0
  0
SEQEND
  5
4A1
100
AcDbEntity
  8
0
  0
POLYLINE
  5
4A2
100
AcDbEntity
  8
0
  6
CONTINUOUS
 62
         7
100
AcDb2dPolyline
 66
         1
 10
0.0
 20
0.0
 30
0.0
 70
       128
  0
VERTEX
  5
4A3
100
AcDbEntity
  8
0
100
AcDbVertex
100
AcDb2dVertex
 10
251.6153118837
 20
134.5537596133
 30
0.0
  0
VERTEX
  5
4A4
100
AcDbEntity
  8
0
100
AcDbVertex
100
AcDb2dVertex
 10
251.8678007342
 20
134.7473504807
 30
0.0
  0
VERTEX
  5
4A5
100
AcDbEntity
  8
0
100
AcDbVertex
100
AcDb2dVertex
 10
252.1152117235
 20
134.7921410235
 30
0.0
  0
SEQEND
  5
4A6
100
AcDbEntity
  8
0
  0
POLYLINE
  5
4A7
100
AcDbEntity
  8
0
  6
CONTINUOUS
 62
         7
100
AcDb2dPolyline
 66
         1
 10
0.0
 20
0.0
 30
0.0
 70
       128
  0
VERTEX
  5
4A8
100
AcDbEntity
  8
0
100
AcDbVertex
100
AcDb2dVertex
 10
251.4680763068
 20
134.1267764402
 30
0.0
  0
VERTEX
  5
4A9
100
AcDbEntity
  8
0
100
AcDbVertex
100
AcDb2dVertex
 10
251.5143328113
 20
134.3789305847
 30
0.0
  0
VERTEX
  5
4AA
100
AcDbEntity
  8
0
100
AcDbVertex
100
AcDb2dVertex
 10
251.6153118837
 20
134.5537596133
 30
0.0
  0
SEQEND
  5
4AB
100
AcDbEntity
  8
0
  0
POLYLINE
  5
4AC
100
AcDbEntity
  8
0
  6
CONTINUOUS
 62
         7
100
AcDb2dPolyline
 66
         1
 10
0.0
 20
0.0
 30
0.0
 70
       128
  0
VERTEX
  5
4AD
100
AcDbEntity
  8
0
100
AcDbVertex
100
AcDb2dVertex
 10
252.1113555536
 20
133.4684230748
 30
0.0
  0
VERTEX
  5
4AE
100
AcDbEntity
  8
0
100
AcDbVertex
100
AcDb2dVertex
 10
251.8305942579
 20
133.5238390884
 30
0.0
  0
VERTEX
  5
4AF
100
AcDbEntity
  8
0
100
AcDbVertex
100
AcDb2dVertex
 10
251.6104693939
 20
133.7052507996
 30
0.0
  0
VERTEX
  5
4B0
100
AcDbEntity
  8
0
100
AcDbVertex
100
AcDb2dVertex
 10
251.5041477724
 20
133.9041838517
 30
0.0
  0
VERTEX
  5
4B1
100
AcDbEntity
  8
0
100
AcDbVertex
100
AcDb2dVertex
 10
251.4680763068
 20
134.1267764402
 30
0.0
  0
SEQEND
  5
4B2
100
AcDbEntity
  8
0
  0
POLYLINE
  5
4B3
100
AcDbEntity
  8
0
  6
CONTINUOUS
 62
         7
100
AcDb2dPolyline
 66
         1
 10
0.0
 20
0.0
 30
0.0
 70
       128
  0
VERTEX
  5
4B4
100
AcDbEntity
  8
0
100
AcDbVertex
100
AcDb2dVertex
 10
252.7020506658
 20
133.8214378985
 30
0.0
  0
VERTEX
  5
4B5
100
AcDbEntity
  8
0
100
AcDbVertex
100
AcDb2dVertex
 10
252.5845613283
 20
133.6558777369
 30
0.0
  0
VERTEX
  5
4B6
100
AcDbEntity
  8
0
100
AcDbVertex
100
AcDb2dVertex
 10
252.4209917843
 20
133.5361592652
 30
0.0
  0
VERTEX
  5
4B7
100
AcDbEntity
  8
0
100
AcDbVertex
100
AcDb2dVertex
 10
252.1113555536
 20
133.4684230748
 30
0.0
  0
SEQEND
  5
4B8
100
AcDbEntity
  8
0
  0
LINE
  5
4B9
100
AcDbEntity
  8
0
  6
CONTINUOUS
 62
         7
100
AcDbLine
 10
252.5625274286
 20
133.8947051261
 30
0.0
 11
252.7020506658
 21
133.8214378985
 31
0.0
  0
POLYLINE
  5
4BA
100
AcDbEntity
  8
0
  6
CONTINUOUS
 62
         7
100
AcDb2dPolyline
 66
         1
 10
0.0
 20
0.0
 30
0.0
 70
       128
  0
VERTEX
  5
4BB
100
AcDbEntity
  8
0
100
AcDbVertex
100
AcDb2dVertex
 10
252.0917241433
 20
133.6254743568
 30
0.0
  0
VERTEX
  5
4BC
100
AcDbEntity
  8
0
100
AcDbVertex
100
AcDb2dVertex
 10
252.2490877191
 20
133.6473207325
 30
0.0
  0
VERTEX
  5
4BD
100
AcDbEntity
  8
0
100
AcDbVertex
100
AcDb2dVertex
 10
252.3943055744
 20
133.7116176311
 30
0.0
  0
VERTEX
  5
4BE
100
AcDbEntity
  8
0
100
AcDbVertex
100
AcDb2dVertex
 10
252.5625274286
 20
133.8947051261
 30
0.0
  0
SEQEND
  5
4BF
100
AcDbEntity
  8
0
  0
POLYLINE
  5
4C0
100
AcDbEntity
  8
0
  6
CONTINUOUS
 62
         7
100
AcDb2dPolyline
 66
         1
 10
0.0
 20
0.0
 30
0.0
 70
       128
  0
VERTEX
  5
4C1
100
AcDbEntity
  8
0
100
AcDbVertex
100
AcDb2dVertex
 10
253.8238455376
 20
134.9740821293
 30
0.0
  0
VERTEX
  5
4C2
100
AcDbEntity
  8
0
100
AcDbVertex
100
AcDb2dVertex
 10
253.8323061552
 20
135.1101677651
 30
0.0
  0
VERTEX
  5
4C3
100
AcDbEntity
  8
0
100
AcDbVertex
100
AcDb2dVertex
 10
253.8867248754
 20
135.2329481344
 30
0.0
  0
VERTEX
  5
4C4
100
AcDbEntity
  8
0
100
AcDbVertex
100
AcDb2dVertex
 10
253.9757639448
 20
135.2911107996
 30
0.0
  0
VERTEX
  5
4C5
100
AcDbEntity
  8
0
100
AcDbVertex
100
AcDb2dVertex
 10
254.0811572363
 20
135.3081666645
 30
0.0
  0
SEQEND
  5
4C6
100
AcDbEntity
  8
0
  0
LINE
  5
4C7
100
AcDbEntity
  8
0
  6
CONTINUOUS
 62
         7
100
AcDbLine
 10
253.8238455376
 20
134.7697051261
 30
0.0
 11
253.8238455376
 21
134.9740821293
 31
0.0
  0
LINE
  5
4C8
100
AcDbEntity
  8
0
  6
CONTINUOUS
 62
         7
100
AcDbLine
 10
253.6443583581
 20
134.7697051261
 30
0.0
 11
253.8238455376
 21
134.7697051261
 31
0.0
  0
LINE
  5
4C9
100
AcDbEntity
  8
0
  6
CONTINUOUS
 62
         7
100
AcDbLine
 10
253.6443583581
 20
134.612653844
 30
0.0
 11
253.6443583581
 21
134.7697051261
 31
0.0
  0
LINE
  5
4CA
100
AcDbEntity
  8
0
  6
CONTINUOUS
 62
         7
100
AcDbLine
 10
253.8238455376
 20
134.612653844
 30
0.0
 11
253.6443583581
 21
134.612653844
 31
0.0
  0
LINE
  5
4CB
100
AcDbEntity
  8
0
  6
CONTINUOUS
 62
         7
100
AcDbLine
 10
253.8238455376
 20
133.4908589722
 30
0.0
 11
253.8238455376
 21
134.612653844
 31
0.0
  0
LINE
  5
4CC
100
AcDbEntity
  8
0
  6
CONTINUOUS
 62
         7
100
AcDbLine
 10
253.9808968196
 20
133.4908589722
 30
0.0
 11
253.8238455376
 21
133.4908589722
 31
0.0
  0
LINE
  5
4CD
100
AcDbEntity
  8
0
  6
CONTINUOUS
 62
         7
100
AcDbLine
 10
253.9815979414
 20
134.612653844
 30
0.0
 11
253.9808968196
 21
133.4908589722
 31
0.0
  0
LINE
  5
4CE
100
AcDbEntity
  8
0
  6
CONTINUOUS
 62
         7
100
AcDbLine
 10
254.2501275888
 20
134.612653844
 30
0.0
 11
253.9815979414
 21
134.612653844
 31
0.0
  0
LINE
  5
4CF
100
AcDbEntity
  8
0
  6
CONTINUOUS
 62
         7
100
AcDbLine
 10
254.2501275888
 20
134.7697051261
 30
0.0
 11
254.2501275888
 21
134.612653844
 31
0.0
  0
LINE
  5
4D0
100
AcDbEntity
  8
0
  6
CONTINUOUS
 62
         7
100
AcDbLine
 10
253.9819485023
 20
134.7697051261
 30
0.0
 11
254.2501275888
 21
134.7697051261
 31
0.0
  0
LINE
  5
4D1
100
AcDbEntity
  8
0
  6
CONTINUOUS
 62
         7
100
AcDbLine
 10
253.9819485023
 20
134.9470889402
 30
0.0
 11
253.9819485023
 21
134.7697051261
 31
0.0
  0
POLYLINE
  5
4D2
100
AcDbEntity
  8
0
  6
CONTINUOUS
 62
         7
100
AcDb2dPolyline
 66
         1
 10
0.0
 20
0.0
 30
0.0
 70
       128
  0
VERTEX
  5
4D3
100
AcDbEntity
  8
0
100
AcDbVertex
100
AcDb2dVertex
 10
254.1134088388
 20
135.1511153825
 30
0.0
  0
VERTEX
  5
4D4
100
AcDbEntity
  8
0
100
AcDbVertex
100
AcDb2dVertex
 10
254.0434790785
 20
135.1375420954
 30
0.0
  0
VERTEX
  5
4D5
100
AcDbEntity
  8
0
100
AcDbVertex
100
AcDb2dVertex
 10
254.0134938747
 20
135.1180205988
 30
0.0
  0
VERTEX
  5
4D6
100
AcDbEntity
  8
0
100
AcDbVertex
100
AcDb2dVertex
 10
253.9920320736
 20
135.0897039938
 30
0.0
  0
VERTEX
  5
4D7
100
AcDbEntity
  8
0
100
AcDbVertex
100
AcDb2dVertex
 10
253.9819485023
 20
134.9470889402
 30
0.0
  0
SEQEND
  5
4D8
100
AcDbEntity
  8
0
  0
POLYLINE
  5
4D9
100
AcDbEntity
  8
0
  6
CONTINUOUS
 62
         7
100
AcDb2dPolyline
 66
         1
 10
0.0
 20
0.0
 30
0.0
 70
       128
  0
VERTEX
  5
4DA
100
AcDbEntity
  8
0
100
AcDbVertex
100
AcDb2dVertex
 10
254.2725634863
 20
135.111852562
 30
0.0
  0
VERTEX
  5
4DB
100
AcDbEntity
  8
0
100
AcDbVertex
100
AcDb2dVertex
 10
254.1852081282
 20
135.1415770532
 30
0.0
  0
VERTEX
  5
4DC
100
AcDbEntity
  8
0
100
AcDbVertex
100
AcDb2dVertex
 10
254.1134088388
 20
135.1511153825
 30
0.0
  0
SEQEND
  5
4DD
100
AcDbEntity
  8
0
  0
LINE
  5
4DE
100
AcDbEntity
  8
0
  6
CONTINUOUS
 62
         7
100
AcDbLine
 10
254.2725634863
 20
135.2752139402
 30
0.0
 11
254.2725634863
 21
135.111852562
 31
0.0
  0
POLYLINE
  5
4DF
100
AcDbEntity
  8
0
  6
CONTINUOUS
 62
         7
100
AcDb2dPolyline
 66
         1
 10
0.0
 20
0.0
 30
0.0
 70
       128
  0
VERTEX
  5
4E0
100
AcDbEntity
  8
0
100
AcDbVertex
100
AcDb2dVertex
 10
254.0811572363
 20
135.3081666645
 30
0.0
  0
VERTEX
  5
4E1
100
AcDbEntity
  8
0
100
AcDbVertex
100
AcDb2dVertex
 10
254.1894711717
 20
135.2962518436
 30
0.0
  0
VERTEX
  5
4E2
100
AcDbEntity
  8
0
100
AcDbVertex
100
AcDb2dVertex
 10
254.2725634863
 20
135.2752139402
 30
0.0
  0
SEQEND
  5
4E3
100
AcDbEntity
  8
0
  0
POLYLINE
  5
4E4
100
AcDbEntity
  8
0
  6
CONTINUOUS
 62
         7
100
AcDb2dPolyline
 66
         1
 10
0.0
 20
0.0
 30
0.0
 70
       128
  0
VERTEX
  5
4E5
100
AcDbEntity
  8
0
100
AcDbVertex
100
AcDb2dVertex
 10
241.8223932138
 20
133.6254743568
 30
0.0
  0
VERTEX
  5
4E6
100
AcDbEntity
  8
0
100
AcDbVertex
100
AcDb2dVertex
 10
242.0395884103
 20
133.6732134186
 30
0.0
  0
VERTEX
  5
4E7
100
AcDbEntity
  8
0
100
AcDbVertex
100
AcDb2dVertex
 10
242.2161279164
 20
133.8084293628
 30
0.0
  0
VERTEX
  5
4E8
100
AcDbEntity
  8
0
100
AcDbVertex
100
AcDb2dVertex
 10
242.3046013815
 20
133.9598568464
 30
0.0
  0
VERTEX
  5
4E9
100
AcDbEntity
  8
0
100
AcDbVertex
100
AcDb2dVertex
 10
242.3366660504
 20
134.1320348536
 30
0.0
  0
SEQEND
  5
4EA
100
AcDbEntity
  8
0
  0
POLYLINE
  5
4EB
100
AcDbEntity
  8
0
  6
CONTINUOUS
 62
         7
100
AcDb2dPolyline
 66
         1
 10
0.0
 20
0.0
 30
0.0
 70
       128
  0
VERTEX
  5
4EC
100
AcDbEntity
  8
0
100
AcDbVertex
100
AcDb2dVertex
 10
241.3046147683
 20
134.127477562
 30
0.0
  0
VERTEX
  5
4ED
100
AcDbEntity
  8
0
100
AcDbVertex
100
AcDb2dVertex
 10
241.3511781573
 20
133.9088009218
 30
0.0
  0
VERTEX
  5
4EE
100
AcDbEntity
  8
0
100
AcDbVertex
100
AcDb2dVertex
 10
241.492229603
 20
133.7357769089
 30
0.0
  0
VERTEX
  5
4EF
100
AcDbEntity
  8
0
100
AcDbVertex
100
AcDb2dVertex
 10
241.6483574018
 20
133.6537801625
 30
0.0
  0
VERTEX
  5
4F0
100
AcDbEntity
  8
0
100
AcDbVertex
100
AcDb2dVertex
 10
241.8223932138
 20
133.6254743568
 30
0.0
  0
SEQEND
  5
4F1
100
AcDbEntity
  8
0
  0
POLYLINE
  5
4F2
100
AcDbEntity
  8
0
  6
CONTINUOUS
 62
         7
100
AcDb2dPolyline
 66
         1
 10
0.0
 20
0.0
 30
0.0
 70
       128
  0
VERTEX
  5
4F3
100
AcDbEntity
  8
0
100
AcDbVertex
100
AcDb2dVertex
 10
241.8199392876
 20
134.6350897415
 30
0.0
  0
VERTEX
  5
4F4
100
AcDbEntity
  8
0
100
AcDbVertex
100
AcDb2dVertex
 10
241.5999659743
 20
134.5904609943
 30
0.0
  0
VERTEX
  5
4F5
100
AcDbEntity
  8
0
100
AcDbVertex
100
AcDb2dVertex
 10
241.4210950994
 20
134.455106064
 30
0.0
  0
VERTEX
  5
4F6
100
AcDbEntity
  8
0
100
AcDbVertex
100
AcDb2dVertex
 10
241.3326791491
 20
134.3021438106
 30
0.0
  0
VERTEX
  5
4F7
100
AcDbEntity
  8
0
100
AcDbVertex
100
AcDb2dVertex
 10
241.3046147683
 20
134.127477562
 30
0.0
  0
SEQEND
  5
4F8
100
AcDbEntity
  8
0
  0
POLYLINE
  5
4F9
100
AcDbEntity
  8
0
  6
CONTINUOUS
 62
         7
100
AcDb2dPolyline
 66
         1
 10
0.0
 20
0.0
 30
0.0
 70
       128
  0
VERTEX
  5
4FA
100
AcDbEntity
  8
0
100
AcDbVertex
100
AcDb2dVertex
 10
242.3366660504
 20
134.1320348536
 30
0.0
  0
VERTEX
  5
4FB
100
AcDbEntity
  8
0
100
AcDbVertex
100
AcDb2dVertex
 10
242.2858830016
 20
134.3486249668
 30
0.0
  0
VERTEX
  5
4FC
100
AcDbEntity
  8
0
100
AcDbVertex
100
AcDb2dVertex
 10
242.147363424
 20
134.5230235539
 30
0.0
  0
VERTEX
  5
4FD
100
AcDbEntity
  8
0
100
AcDbVertex
100
AcDb2dVertex
 10
241.9932435959
 20
134.6069885335
 30
0.0
  0
VERTEX
  5
4FE
100
AcDbEntity
  8
0
100
AcDbVertex
100
AcDb2dVertex
 10
241.8199392876
 20
134.6350897415
 30
0.0
  0
SEQEND
  5
4FF
100
AcDbEntity
  8
0
  0
POLYLINE
  5
500
100
AcDbEntity
  8
0
  6
CONTINUOUS
 62
         7
100
AcDb2dPolyline
 66
         1
 10
0.0
 20
0.0
 30
0.0
 70
       128
  0
VERTEX
  5
501
100
AcDbEntity
  8
0
100
AcDbVertex
100
AcDb2dVertex
 10
243.424807076
 20
133.6254743568
 30
0.0
  0
VERTEX
  5
502
100
AcDbEntity
  8
0
100
AcDbVertex
100
AcDb2dVertex
 10
243.6402493085
 20
133.6705369558
 30
0.0
  0
VERTEX
  5
503
100
AcDbEntity
  8
0
100
AcDbVertex
100
AcDb2dVertex
 10
243.8150726885
 20
133.803773203
 30
0.0
  0
VERTEX
  5
504
100
AcDbEntity
  8
0
100
AcDbVertex
100
AcDb2dVertex
 10
243.9004677181
 20
133.9547851446
 30
0.0
  0
VERTEX
  5
505
100
AcDbEntity
  8
0
100
AcDbVertex
100
AcDb2dVertex
 10
243.9296147683
 20
134.1257247575
 30
0.0
  0
SEQEND
  5
506
100
AcDbEntity
  8
0
  0
POLYLINE
  5
507
100
AcDbEntity
  8
0
  6
CONTINUOUS
 62
         7
100
AcDb2dPolyline
 66
         1
 10
0.0
 20
0.0
 30
0.0
 70
       128
  0
VERTEX
  5
508
100
AcDbEntity
  8
0
100
AcDbVertex
100
AcDb2dVertex
 10
242.9199993837
 20
134.1257247575
 30
0.0
  0
VERTEX
  5
509
100
AcDbEntity
  8
0
100
AcDbVertex
100
AcDb2dVertex
 10
242.9673117403
 20
133.9108401723
 30
0.0
  0
VERTEX
  5
50A
100
AcDbEntity
  8
0
100
AcDbVertex
100
AcDb2dVertex
 10
243.1015474451
 20
133.7365682028
 30
0.0
  0
VERTEX
  5
50B
100
AcDbEntity
  8
0
100
AcDbVertex
100
AcDb2dVertex
 10
243.2535164311
 20
133.6530854975
 30
0.0
  0
VERTEX
  5
50C
100
AcDbEntity
  8
0
100
AcDbVertex
100
AcDb2dVertex
 10
243.424807076
 20
133.6254743568
 30
0.0
  0
SEQEND
  5
50D
100
AcDbEntity
  8
0
  0
POLYLINE
  5
50E
100
AcDbEntity
  8
0
  6
CONTINUOUS
 62
         7
100
AcDb2dPolyline
 66
         1
 10
0.0
 20
0.0
 30
0.0
 70
       128
  0
VERTEX
  5
50F
100
AcDbEntity
  8
0
100
AcDbVertex
100
AcDb2dVertex
 10
243.424807076
 20
134.6350897415
 30
0.0
  0
VERTEX
  5
510
100
AcDbEntity
  8
0
100
AcDbVertex
100
AcDb2dVertex
 10
243.2086464571
 20
134.5872572656
 30
0.0
  0
VERTEX
  5
511
100
AcDbEntity
  8
0
100
AcDbVertex
100
AcDb2dVertex
 10
243.0351532287
 20
134.4493643927
 30
0.0
  0
VERTEX
  5
512
100
AcDbEntity
  8
0
100
AcDbVertex
100
AcDb2dVertex
 10
242.9482240798
 20
134.2980574078
 30
0.0
  0
VERTEX
  5
513
100
AcDbEntity
  8
0
100
AcDbVertex
100
AcDb2dVertex
 10
242.9199993837
 20
134.1257247575
 30
0.0
  0
SEQEND
  5
514
100
AcDbEntity
  8
0
  0
POLYLINE
  5
515
100
AcDbEntity
  8
0
  6
CONTINUOUS
 62
         7
100
AcDb2dPolyline
 66
         1
 10
0.0
 20
0.0
 30
0.0
 70
       128
  0
VERTEX
  5
516
100
AcDbEntity
  8
0
100
AcDbVertex
100
AcDb2dVertex
 10
243.9296147683
 20
134.1257247575
 30
0.0
  0
VERTEX
  5
517
100
AcDbEntity
  8
0
100
AcDbVertex
100
AcDb2dVertex
 10
243.8833334846
 20
134.3422618974
 30
0.0
  0
VERTEX
  5
518
100
AcDbEntity
  8
0
100
AcDbVertex
100
AcDb2dVertex
 10
243.7470096523
 20
134.516976824
 30
0.0
  0
VERTEX
  5
519
100
AcDbEntity
  8
0
100
AcDbVertex
100
AcDb2dVertex
 10
243.5968285069
 20
134.6057138037
 30
0.0
  0
VERTEX
  5
51A
100
AcDbEntity
  8
0
100
AcDbVertex
100
AcDb2dVertex
 10
243.424807076
 20
134.6350897415
 30
0.0
  0
SEQEND
  5
51B
100
AcDbEntity
  8
0
  0
POLYLINE
  5
51C
100
AcDbEntity
  8
0
  6
CONTINUOUS
 62
         7
100
AcDb2dPolyline
 66
         1
 10
0.0
 20
0.0
 30
0.0
 70
       128
  0
VERTEX
  5
51D
100
AcDbEntity
  8
0
100
AcDbVertex
100
AcDb2dVertex
 10
247.0482045119
 20
134.1257247575
 30
0.0
  0
VERTEX
  5
51E
100
AcDbEntity
  8
0
100
AcDbVertex
100
AcDb2dVertex
 10
247.0955168685
 20
133.9108401723
 30
0.0
  0
VERTEX
  5
51F
100
AcDbEntity
  8
0
100
AcDbVertex
100
AcDb2dVertex
 10
247.2297525733
 20
133.7365682028
 30
0.0
  0
VERTEX
  5
520
100
AcDbEntity
  8
0
100
AcDbVertex
100
AcDb2dVertex
 10
247.3817215593
 20
133.6530854975
 30
0.0
  0
VERTEX
  5
521
100
AcDbEntity
  8
0
100
AcDbVertex
100
AcDb2dVertex
 10
247.5530122042
 20
133.6254743568
 30
0.0
  0
SEQEND
  5
522
100
AcDbEntity
  8
0
  0
POLYLINE
  5
523
100
AcDbEntity
  8
0
  6
CONTINUOUS
 62
         7
100
AcDb2dPolyline
 66
         1
 10
0.0
 20
0.0
 30
0.0
 70
       128
  0
VERTEX
  5
524
100
AcDbEntity
  8
0
100
AcDbVertex
100
AcDb2dVertex
 10
247.5530122042
 20
134.6350897415
 30
0.0
  0
VERTEX
  5
525
100
AcDbEntity
  8
0
100
AcDbVertex
100
AcDb2dVertex
 10
247.3368515853
 20
134.5872572656
 30
0.0
  0
VERTEX
  5
526
100
AcDbEntity
  8
0
100
AcDbVertex
100
AcDb2dVertex
 10
247.1633583569
 20
134.4493643927
 30
0.0
  0
VERTEX
  5
527
100
AcDbEntity
  8
0
100
AcDbVertex
100
AcDb2dVertex
 10
247.076429208
 20
134.2980574078
 30
0.0
  0
VERTEX
  5
528
100
AcDbEntity
  8
0
100
AcDbVertex
100
AcDb2dVertex
 10
247.0482045119
 20
134.1257247575
 30
0.0
  0
SEQEND
  5
529
100
AcDbEntity
  8
0
  0
POLYLINE
  5
52A
100
AcDbEntity
  8
0
  6
CONTINUOUS
 62
         7
100
AcDb2dPolyline
 66
         1
 10
0.0
 20
0.0
 30
0.0
 70
       128
  0
VERTEX
  5
52B
100
AcDbEntity
  8
0
100
AcDbVertex
100
AcDb2dVertex
 10
247.5530122042
 20
133.6254743568
 30
0.0
  0
VERTEX
  5
52C
100
AcDbEntity
  8
0
100
AcDbVertex
100
AcDb2dVertex
 10
247.7684544367
 20
133.6705369558
 30
0.0
  0
VERTEX
  5
52D
100
AcDbEntity
  8
0
100
AcDbVertex
100
AcDb2dVertex
 10
247.9432778167
 20
133.803773203
 30
0.0
  0
VERTEX
  5
52E
100
AcDbEntity
  8
0
100
AcDbVertex
100
AcDb2dVertex
 10
248.0286728463
 20
133.9547851446
 30
0.0
  0
VERTEX
  5
52F
100
AcDbEntity
  8
0
100
AcDbVertex
100
AcDb2dVertex
 10
248.0578198965
 20
134.1257247575
 30
0.0
  0
SEQEND
  5
530
100
AcDbEntity
  8
0
  0
POLYLINE
  5
531
100
AcDbEntity
  8
0
  6
CONTINUOUS
 62
         7
100
AcDb2dPolyline
 66
         1
 10
0.0
 20
0.0
 30
0.0
 70
       128
  0
VERTEX
  5
532
100
AcDbEntity
  8
0
100
AcDbVertex
100
AcDb2dVertex
 10
248.0578198965
 20
134.1257247575
 30
0.0
  0
VERTEX
  5
533
100
AcDbEntity
  8
0
100
AcDbVertex
100
AcDb2dVertex
 10
248.0115386129
 20
134.3422618974
 30
0.0
  0
VERTEX
  5
534
100
AcDbEntity
  8
0
100
AcDbVertex
100
AcDb2dVertex
 10
247.8752147805
 20
134.516976824
 30
0.0
  0
VERTEX
  5
535
100
AcDbEntity
  8
0
100
AcDbVertex
100
AcDb2dVertex
 10
247.7250336351
 20
134.6057138037
 30
0.0
  0
VERTEX
  5
536
100
AcDbEntity
  8
0
100
AcDbVertex
100
AcDb2dVertex
 10
247.5530122042
 20
134.6350897415
 30
0.0
  0
SEQEND
  5
537
100
AcDbEntity
  8
0
  0
POLYLINE
  5
538
100
AcDbEntity
  8
0
  6
CONTINUOUS
 62
         7
100
AcDb2dPolyline
 66
         1
 10
0.0
 20
0.0
 30
0.0
 70
       128
  0
VERTEX
  5
539
100
AcDbEntity
  8
0
100
AcDbVertex
100
AcDb2dVertex
 10
251.7937473805
 20
134.5151979145
 30
0.0
  0
VERTEX
  5
53A
100
AcDbEntity
  8
0
100
AcDbVertex
100
AcDb2dVertex
 10
251.6906750114
 20
134.3791761345
 30
0.0
  0
VERTEX
  5
53B
100
AcDbEntity
  8
0
100
AcDbVertex
100
AcDb2dVertex
 10
251.641603951
 20
134.253679485
 30
0.0
  0
SEQEND
  5
53C
100
AcDbEntity
  8
0
  0
POLYLINE
  5
53D
100
AcDbEntity
  8
0
  6
CONTINUOUS
 62
         7
100
AcDb2dPolyline
 66
         1
 10
0.0
 20
0.0
 30
0.0
 70
       128
  0
VERTEX
  5
53E
100
AcDbEntity
  8
0
100
AcDbVertex
100
AcDb2dVertex
 10
252.1232746241
 20
134.6350897415
 30
0.0
  0
VERTEX
  5
53F
100
AcDbEntity
  8
0
100
AcDbVertex
100
AcDb2dVertex
 10
251.9271601298
 20
134.5982182434
 30
0.0
  0
VERTEX
  5
540
100
AcDbEntity
  8
0
100
AcDbVertex
100
AcDb2dVertex
 10
251.7937473805
 20
134.5151979145
 30
0.0
  0
SEQEND
  5
541
100
AcDbEntity
  8
0
  0
LINE
  5
542
100
AcDbEntity
  8
0
  6
CONTINUOUS
 62
         7
100
AcDbLine
 10
251.641603951
 20
134.253679485
 30
0.0
 11
252.612307076
 21
134.253679485
 31
0.0
  0
POLYLINE
  5
543
100
AcDbEntity
  8
0
  6
CONTINUOUS
 62
         7
100
AcDb2dPolyline
 66
         1
 10
0.0
 20
0.0
 30
0.0
 70
       128
  0
VERTEX
  5
544
100
AcDbEntity
  8
0
100
AcDbVertex
100
AcDb2dVertex
 10
252.612307076
 20
134.253679485
 30
0.0
  0
VERTEX
  5
545
100
AcDbEntity
  8
0
100
AcDbVertex
100
AcDb2dVertex
 10
252.5401226586
 20
134.4269382386
 30
0.0
  0
VERTEX
  5
546
100
AcDbEntity
  8
0
100
AcDbVertex
100
AcDb2dVertex
 10
252.4049346914
 20
134.5560962783
 30
0.0
  0
VERTEX
  5
547
100
AcDbEntity
  8
0
100
AcDbVertex
100
AcDb2dVertex
 10
252.2695969394
 20
134.6151775168
 30
0.0
  0
VERTEX
  5
548
100
AcDbEntity
  8
0
100
AcDbVertex
100
AcDb2dVertex
 10
252.1232746241
 20
134.6350897415
 30
0.0
  0
SEQEND
  5
549
100
AcDbEntity
  8
0
  0
ENDSEC
  0
SECTION
  2
OBJECTS
  0
DICTIONARY
  5
19
100
AcDbDictionary
  3
ACAD_GROUP
350
1A
  3
ACAD_MLINESTYLE
350
1B
  0
DICTIONARY
  5
1A
102
{ACAD_REACTORS
330
19
102
}
100
AcDbDictionary
  0
DICTIONARY
  5
1B
102
{ACAD_REACTORS
330
19
102
}
100
AcDbDictionary
  3
STANDARD
350
1C
  0
MLINESTYLE
  5
1C
102
{ACAD_REACTORS
330
1B
102
}
100
AcDbMlineStyle
  2
STANDARD
 70
         0
  3

 62
         0
 51
90.0
 52
90.0
 71
         2
 49
0.5
 62
       256
  6
BYLAYER
 49
-0.5
 62
       256
  6
BYLAYER
  0
ENDSEC
  0
EOF
